Oops, an error
Loading. Please wait.

Bringing It Back bass

version 1
version 1

Whole song

  • I wrote this tab because I couldn't find one anywhere.

Interactive

by Kansas
19 views 1 this week
no commentswrite comment
1 2 3 4 5
3 more votes to show rating
add to favorites
×
Save as Personal and add changes to this tab that will be seen only by you. Learn more ›
×
You can save this tab as Personal to edit and correct it or add notes. All changes will be seen only by you. Learn more »
launch autoscroll
font size
0
reset
guitar tuner
edit
Autoscroll
slow
fast
+/-
esc
set tempo
stop
Author
About this tab version
I wrote this tab because I couldn't find one anywhere. Was this info helpful? Yes No
Bringing it Back by Kansas
Around 220bpm

The bass is played in a high tempo shuffle beat. Shuffle rhythm is a specific 8th note rhythmic feel. It is 
based on triplet subdivisions of the beat rather than on dividing each beat perfectly in half (a.k.a. straight
8th notes). It's easiest to understand it by hearing it. It is a very familiar rhythmic feel that's heard in 
rock, blues, and jazz. For easier tabbing I decided to avoid subdividing the beats into triplets. Just pay
attention to the shuffle rhythm in the bass. You can also look for examples youtube.

Intro(0:00)

  + ^ + ^ + ^ + ^  + ^ + ^ + ^ + ^  + ^ + ^ + ^ + ^  + ^ + ^ + ^ + ^
G|----------------|----------------|----------------|----------------|
D|----------------|----------------|----------------|----------------|
A|----------------|----------------|----------------|----------------|
E|----------------|----------------|----------------|----------------|

  + ^ + ^ + ^ + ^  + ^ + ^ + ^ + ^  + ^ + ^ + ^ + ^  + ^ + ^ + ^ + ^
G|----------------|----------------|----------------|----------------|
D|----------------|----------------|----------------|----------------|
A|----------------|----------------|----------------|------------2///|
E|----------------|----------------|----------------|----------------|

  + ^ + ^ + ^ + ^  + ^ + ^ + ^ + ^  + ^ + ^ + ^ + ^  + ^ + ^ + ^ + ^  \
G|----------------|----------------|----------------|----------------| \
D|----------------|--------5-5-7-7-|----------------|----------------|  \
A|7-7-7-7-7-7-7-7-|7-7-7-7---------|7-7-7-7-7-7-7-7-|7-7-7-7-5-5-----|   \
E|----------------|----------------|----------------|------------7---|    \
                                                                           \ X2
  + ^ + ^ + ^ + ^  + ^ + ^ + ^ + ^  + ^ + ^ + ^ + ^  + ^ + ^ + ^ + ^       /
G|----------------|----------------|----------------|----------------|    /
D|----------------|--------5-5-7-7-|----------------|----------------|   /
A|7-7-7-7-7-7-7-7-|7-7-7-7---------|7-7-------------|----4-4-5-5-6-6-|  /
E|----------------|----------------|----4-4-5-5-6-6-|7-7-------------| /
                                                                      /
Verse(0:26)

  + ^ + ^ + ^ + ^  + ^ + ^ + ^ + ^  + ^ + ^ + ^ + ^  + ^ + ^ + ^ + ^  \ 
G|----------------|----------------|----------------|----------------| \
D|----------------|--------5-5-7-7-|----------------|----------------|  \ X5
A|7-7-7-7-7-7-7-7-|7-7-7-7---------|7-7-7-7-7-7-7-7-|7-7-7-7-5-5-----|  /
E|----------------|----------------|----------------|------------7---| /
                                                                      /
Chorus(0:48)

  + ^ + ^  
G|--------|
D|5-------|
A|----5---|
E|--------|

  + ^ + ^ + ^ + ^  + ^ + ^ + ^ + ^  \
G|----------------|----------------| \
D|----------------|--------5-------|  \ X3
A|----------------|------------5---|  /
E|5-5-5-5-5-5-5-5-|5-5-5-5---------| /
                                    /
  + ^ + ^ + ^ + ^  + ^ + ^ + ^ + ^ 
G|----------------|----------------|
D|----------------|----------------|
A|----------------|----------------|
E|5-5-5-5-5-5-5-5-|5---------------|

Verse 2(0:57)

  + ^ + ^ + ^ + ^  + ^ + ^ + ^ + ^  + ^ + ^ + ^ + ^  + ^ + ^ + ^ + ^  \ 
G|----------------|----------------|----------------|----------------| \
D|----------------|--------5-5-7-7-|----------------|----------------|  \ X5
A|7-7-7-7-7-7-7-7-|7-7-7-7---------|7-7-7-7-7-7-7-7-|7-7-7-7-5-5-----|  /
E|----------------|----------------|----------------|------------7---| /
                                                                      /
Chorus 2(1:19)

  + ^ + ^  
G|--------|
D|5-------|
A|----5---|
E|--------|

  + ^ + ^ + ^ + ^  + ^ + ^ + ^ + ^  \
G|----------------|----------------| \
D|----------------|--------5-------|  \ X3
A|----------------|------------5---|  /
E|5-5-5-5-5-5-5-5-|5-5-5-5---------| /
                                    /
  + ^ + ^ + ^ + ^  + ^ + ^ + ^ + ^ 
G|----------------|----------------|
D|----------------|----------------|
A|----------------|----------------|
E|5-5-5-5-5-5-5-5-|5---------------| 

Solos(1:28)

  + ^ + ^ + ^ + ^  + ^ + ^ + ^ + ^  + ^ + ^ + ^ + ^  + ^ + ^ + ^ + ^
G|----------------|----------------|----------------|----------------|
D|----------------|----------------|----------------|----------------|
A|7-------4---5---|7-------4---5---|7-------4---5---|7-------4---5---|
E|----7-----------|----7-----------|----7-----------|----7-----------|

  + ^ + ^ + ^ + ^  + ^ + ^ + ^ + ^  + ^ + ^ + ^ + ^  + ^ + ^ + ^ + ^
G|----------------|----------------|----------------|----------------|
D|----------------|----------------|----5---4---5///|9---7-----------|
A|7-------4---5---|7-------4---5---|7---------------|--------10--9---|
E|----7-----------|----7-----------|----------------|----------------|  

  + ^ + ^ + ^ + ^  + ^ + ^ + ^ + ^  + ^ + ^ + ^ + ^  + ^ + ^ + ^ + ^
G|----------------|----------------|----------------|----------------|
D|----------------|----------------|----------------|----4---5-------|
A|7-------4---5---|7-------4---5---|7-------4---5---|7-----------5---|
E|----7-----------|----7-----------|----7-----------|----------------|

  + ^ + ^ + ^ + ^  + ^ + ^ + ^ + ^  + ^ + ^ + ^ + ^  + ^ + ^ + ^ + ^
G|----------------|----------------|----------------|----------------|
D|----------------|----------------|----7-7-9-9-7-7-|5-5-7-7-4-4-5-5-|
A|7-------4---5---|7-------4---5---|7---------------|----------------|
E|----7-----------|----7-----------|----------------|----------------| 

  + ^ + ^ + ^ + ^  + ^ + ^ + ^ + ^  + ^ + ^ + ^ + ^  + ^ + ^ + ^ + ^
G|----------------|----------------|----------------|----------------|
D|----------------|----------------|----------------|----4---5-------|
A|7-------4---5---|7-------4---5---|7-------4---5---|7-----------5---|
E|----7-----------|----7-----------|----7-----------|----------------|

  + ^ + ^ + ^ + ^  + ^ + ^ + ^ + ^  + ^ + ^ + ^ + ^  + ^ + ^ + ^ + ^
G|----------------|----------------|----------------|----------------|
D|----------------|----------------|----------------|----------------|
A|7-------4---5---|7-------4---5---|7---------------|----4---5---6---|
E|----7-----------|----7-----------|---x2---3---5---|7---------------|
 
  + ^ + ^ + ^ + ^  + ^ + ^ + ^ + ^  + ^ + ^ + ^ + ^  + ^ + ^ + ^ + ^
G|----------------|----------------|----------------|----------------|
D|----------------|----------------|----------------|----------------|
A|7-------4---5---|7-------4---5---|7-------4---5---|7-------4---5---|
E|----7-----------|----7-----------|----7-----------|----7-----------|

  + ^ + ^ + ^ + ^  + ^ + ^ + ^ + ^  + ^ + ^ + ^ + ^  + ^ + ^ + ^ + ^
G|----------------|----------------|----------------|----------------|
D|----------------|----4---5---4---|----------------|----------------|
A|7-------4---5---|7---------------|7-------4---5---|7-------4---5---|
E|----7-----------|----------------|----7-----------|----7-----------| 

  + ^ + ^ + ^ + ^  + ^ + ^ + ^ + ^  + ^ + ^ + ^ + ^  + ^ + ^ + ^ + ^
G|----------------|----------------|----------------|----------------|
D|----------------|----------------|----------------|----------------|
A|7-------4---5---|7-------4---5---|7-------4---5---|7-------4---5---|
E|----7-----------|----7-----------|----7-----------|----7-----------|

  + ^ + ^ + ^ + ^  + ^ + ^ + ^ + ^  + ^ + ^ + ^ + ^  + ^ + ^ + ^ + ^
G|----------------|----------------|----------------|----------------|
D|----------------|----------------|----------------|----------------|
A|7-------4---5---|7-------4---5---|7-------4---5---|7-------4---5---|
E|----7-----------|----7-----------|----7-----------|----7-----------|

  + ^ + ^ + ^ + ^  + ^ + ^ + ^ + ^  + ^ + ^ + ^ + ^  + ^ + ^ + ^ + ^
G|----------------|----------------|----------------|----------------|
D|----------------|----------------|----------------|----------------|
A|7-------4---5---|7-------4---5---|7-------4---5---|7-------4---5---|
E|----7-----------|----7-----------|----7-----------|----7-----------|

  + ^ + ^ + ^ + ^  + ^ + ^ + ^ + ^  + ^ + ^ + ^ + ^  + ^ + ^ + ^ + ^
G|----------------|----------------|----------------|----------------|
D|----------------|----------------|----------------|----------------|
A|7-------4---5---|7-------4---5---|7-------4---5---|7-------4---5---|
E|----7-----------|----7-----------|----7-----------|----7-----------|

Bridge(2:20)

  + ^ + ^ + ^ + ^  + ^ + ^ + ^ + ^  
G|----------------|----------------|
D|----------------|----------------|
A|7-7-7-7-7-7-7-7-|7-7-7-7-5-5-----|
E|----------------|------------7---|

  + ^ + ^ + ^ + ^  + ^ + ^ + ^ + ^  + ^ + ^ + ^ + ^  + ^ + ^ + ^ + ^  \ 
G|----------------|----------------|----------------|----------------| \
D|----------------|--------5-5-7-7-|----------------|----------------|  \ X3
A|7-7-7-7-7-7-7-7-|7-7-7-7---------|7-7-7-7-7-7-7-7-|7-7-7-7-5-5-----|  /
E|----------------|----------------|----------------|------------7---| /
                                                                      /
Verse 3(2:35)

  + ^ + ^ + ^ + ^  + ^ + ^ + ^ + ^  + ^ + ^ + ^ + ^  + ^ + ^ + ^ + ^
G|----------------|----------------|----------------|----------------|
D|----------------|----------------|----------------|----------------|
A|----------------|----------------|----------------|----------------|
E|0-----0---------|0-----0---------|0-----0---------|0-----0---------|

  + ^ + ^ + ^ + ^  + ^ + ^ + ^ + ^  + ^ + ^ + ^ + ^  + ^ + ^ + ^ + ^
G|----------------|----------------|----------------|----------------|
D|----------------|----------------|----------------|----------------|
A|----------------|----------------|----------------|----------------|
E|0-----0---------|0-----0---------|0-----0---------|0-----0---------|

  + ^ + ^ + ^ + ^  + ^ + ^ + ^ + ^  + ^ + ^ + ^ + ^  + ^ + ^ + ^ + ^
G|----------------|----------------|----------------|----------------|
D|----------------|----------------|----------------|----------------|
A|----------------|----------------|----------------|------------5h7~|
E|0-----0---------|0-----0---------|0-----0---------|0-----0----x----|

  + ^ + ^ + ^ + ^  + ^ + ^ + ^ + ^  + ^ + ^ + ^ + ^  + ^ + ^ + ^ + ^
G|----------------|----------------|----------------|----------------|
D|----------------|----------------|----------------|----------------|
A|~~~~~~~~~~~~~~~~|~~~~~~~~~~~~~~~~|~~~~~~~~~~~~~~~~|~~~~~~~~~~~~5h7~|
E|0~~~~~~~~~~~~~~~|~~~~~~~~~~~~~~~~|~~~~~~~~~~~~~~~~|~~~~~~~~~~~x----|

  + ^ + ^ + ^ + ^  + ^ + ^ + ^ + ^  + ^ + ^ + ^ + ^  + ^ + ^ + ^ + ^
G|----------------|----------------|----------------|----------------|
D|----------------|----------------|----------------|----------------|
A|----------------|----------------|----------------|----------------|
E|0~~~~~~~~~~~~~~~|~~~~~~~~~~~~~~~~|~~~~~~~~~~~~~~~~|~~~~~~~~~~~~~~~~|

  + ^ + ^ + ^ + ^  + ^ + ^ + ^ + ^  + ^ + ^ + ^ + ^  + ^ + ^ + ^ + ^
G|----------------|----------------|----------------|----------------|
D|----------------|----------------|----------------|----------------|
A|----------------|----------------|----------------|----------------|
E|~~~~~~~~~~~~~~~~|----------------|----------------|----------------|

Chorus 3(3:02)

  + ^ + ^  
G|--------|
D|5-------|
A|----5---|
E|--------|

  + ^ + ^ + ^ + ^  + ^ + ^ + ^ + ^  \
G|----------------|----------------| \
D|----------------|--------5-------|  \ X3
A|----------------|------------5---|  /
E|5-5-5-5-5-5-5-5-|5-5-5-5---------| /
                                    /
  + ^ + ^ + ^ + ^  + ^ + ^ + ^ + ^ 
G|----------------|----------------|
D|----------------|----------------|
A|----------------|----------------|
E|5-5-5-5-5-5-5-5-|5---------------|

Break(3:11)

  + ^ + ^ + ^ + ^  + ^ + ^ + ^ + ^  + ^ + ^ + ^ + ^  + ^ + ^ + ^ + ^  + ^ + ^  
G|----------------|----------------|----------------|----------------|--------|
D|----4---5-------|----------------|----------------|----------------|--------|
A|7---------------|----5---7-----5~|~~~~0-----2~~~~~|----------------|--------|
E|--------------7~|~~~~------------|----------------|3-----5~~~~~2---|--0~~~~~|

Chorus 4(3:16)

  + ^ + ^  
G|--------|
D|5-------|
A|----5---|
E|--------|

  + ^ + ^ + ^ + ^  + ^ + ^ + ^ + ^  \
G|----------------|----------------| \
D|----------------|--------5-------|  \ X3
A|----------------|------------5---|  /
E|5-5-5-5-5-5-5-5-|5-5-5-5---------| /
                                    /
  + ^ + ^ + ^ + ^  + ^ + ^ + ^ + ^ 
G|----------------|----------------|
D|----------------|----------------|
A|----------------|----------------|
E|5-5-5-5-5-5-5-5-|5---------------|

Outro(3:25)

  + ^ + ^ + ^ + ^  + ^ + ^ + ^ + ^  + ^ + ^ + ^ + ^  + ^ + ^ + ^ + ^  + ^ + ^  
G|--------------11|~~11------------|----------------|----------------|--------|
D|9---11--12------|----12--9-------|----------------|----5-----------|4-------|
A|----------------|--------------5-|----4p0---2-----|----------------|--------|
E|----------------|----------------|--------5-------|3p0---5-----2p0-|--0~~~~~|

I'm not 100% sure of this outro. I heard and checked it dozens of times and I'm positive it goes something
like this. That's all to it. Feel free to ask me any questions. Enjoy!

************************************

| x   Dead note
| h   Hammer-on
| p   Pull-off
| /   Slide up
| \   Slide down
| ~   Let it ring

            
            
Suggest correction
Creating personal tab
Creating personal tab
You can edit any tab online and save it as your Personal.

You can edit, replace or remove any tab part or add personal notes – all changes will be seen only by you.

Personal tabs can be accessed anytime from any device, even offline.
Learn more »
Give kudos to tab author, rate the tab!
1 2 3 4 5
comments
print report bad tab
guest
You may want to rate the tab now too:
select rating
Wanna post a correction for this tab? Suggest correction