Oops, an error
Loading. Please wait.

Carry On My Wayward Son Chords

version 2
version 2
220,221 views 147 this week
5 commentsread comments
1 2 3 4 5
accurate
x 42
add to favorites
launch autoscroll
font size
0
reset
transpose
0
reset
display chords
guitar tuner
Tab Pro tools
  • play this tab
  • loop segment
  • change instrument
  • show fretboard
  • metronome
×
Best way to learn
"Carry On My Wayward Son"
Autoscroll
slow
fast
+/-
esc
set tempo
stop
Contributor
Carry on My Wayward Son by Kansas
Chords and Main Riff


N.C.
Carry on my wayward son
There'll be peace when you are done
Lay your weary head to rest
Don't you cry no more

e-|--------------|--------------|--------------|--------------|
B-|--------------|--------------|--------------|--------------|
G-|--------------|--------------|--4--7--4-----|--------------|
D-|-----------5--|-----------7--|----------7-5-|--7-----7-----|
A-|--7--5--7-----|--7--5--7-----|--------------|-----5-----4--|
E-|--------------|--------------|--------------|--------------|


Am     G              F         G
Once I rose above the noise and confusion
Am      G             F           G
Just to get a glimpse beyond this illusion
Dm    C            Bb        Bb C  
I was soaring ever higher
Dm    C        G
But I flew too high
Am        G                F           G
Though my eyes could see I still was a blind man
Am        G                F           G
Though my mind could think I still was a mad man
Dm         C               Bb           
I hear the voices when I'm dreaming
Dm    C         G
I can hear them say

Am    C     G       
Carry on my wayward son
Am          C          G       
There'll be peace when you are done
Am       C     G       
Lay your weary head to rest
Am
Don't you cry no more



Am    G           F          G
Masquerading as a man with a reason
Am    G           F            G
My charade is the event of the season
Dm       C             Bb           Bb C
And if I claim to be a wise man
Dm        C                  G
It surely means that I don't know
Am   G             F      G
On a stormy sea of moving emotion
Am     G                F           G
Tossed about I'm like a ship on the ocean
Dm    C                 Bb         Bb C
I set sail for winds of fortune
Dm    C               G
But I hear the voices say

Am    C     G       
Carry on my wayward son
Am          C          G
There'll be peace when you are done
Am       C     G       
Lay your weary head to rest
Am
Don't you cry no more



Am (mute)
Carry on
         C      G
You will always remember
Am (mute)
Carry on
        C          G
Nothing equals the splendor
Dm       C                Bb     Bb C
Now your life's no longer empty
Dm     C                G
Surely Heaven waits for you

Am    C     G       
Carry on my wayward son
Am          C          G
There'll be peace when you are done
Am       C     G       
Lay your weary head to rest
Am                                       
Don't you cry no more
comments
print report bad tab
5 comments total. Showing first comments.
+2 reply
kdcyyz wrote on September 29 2005, 06:31 am

Starting riff is actually more like this. Otherwise this tab is a good one man acoustic aproximation of the real thing.

e|----------------------------------------------------------------------------------------------|
B|----------------------------------------------------------------------------------------------|
G|--------------------------------------------------------12-12~-----------------------14-12~---|
D|-------------------------5-----------------------2-2----12-12~--------0-2-0----2-2---14-12~---|
A|-------3~--------5~--5/7---7p5-3--5----5---------2-2------------0-0-2-------2--2-2------------|
E|-5-3-5-----5-3-5--------------------3~---2~------0-0---------------------------0-0------------|

0 reply
apachexrose wrote on April 19 2007, 06:18 pm

Haha pretty cool!

+4 reply
Kevin67 wrote on May 20 2007, 04:53 pm

The lines of the chorus should have an F at the end.

Am C G F
Carry on my wayward son
Am C G F
There'll be peace when you are done
Am C G F
Lay your weary head to rest
F
Don't you cry no more

I want to post or [tab]
guest
You may want to rate the tab now too:
select rating
Please do not post tabs as comments. Select "correction" instead!