Oops, an error
Loading. Please wait.
We have an official Dust In The Wind tab made by UG professional guitarists. Check out the tab »
×
33,885 views 21 this week
1 commentread comment
1 2 3 4 5
x 9
add to favorites
launch autoscroll
font size
0
reset
guitar tuner
backing track
0:00
0:00
×
Best way to learn
"Dust In The Wind"
Autoscroll
slow
fast
+/-
esc
set tempo
stop
Dust in the Wind
Kansas
4/4 time, standard tuning.

 [Intro]
G||----0-----0--|----0-----0--|-------------|-------------|
D||-------------|-------------|----2-----2--|----2-----2--|
A||-3-----3-----|-3-----3-----|-0-----0-----|-0-----0-----|
E||-------------|-------------|-------------|-------------|

G|----0-----0--|----0-----0--|-------------|------------0-|
D|-------------|-------------|----2-----2--|----2-----2---|
A|-3-----3-----|-3-----3-----|-0-----0-----|-0-----0------|
E|-------------|-------------|-------------|--------------|
 
 [Verse 1]
G|----0-----0--|-------------|----------2--|--------------|
D|-------------|----2-----2--|----0--0-----|----2-----2---|
A|-3-----2-----|-0-----0-----|-------------|-0-----0----2-|
E|-------------|-------------|-3-----------|--------------|

G|----0-----0--|-------------|----------2--|-------------|
D|-------------|----2-----2--|----0--0-----|----2-----2--|
A|-3-----2-----|-0-----0-----|-------------|-0-----0-----|
E|-------------|-------------|-3-----------|-------------|

G|-----------|-------------|-----------|-------------|
D|-----------|----2-----2--|-----------|----2--------|
A|-----------|-0-----------|-----------|-0-----0--2--|
E|-2----3----|-------3-----|-2----3----|-------------|

 [Verse 2]
G|----0-----0--|-------------|----------2--|--------------|
D|-------------|----2-----2--|----0--0-----|----2-----2---|
A|-3-----2-----|-0-----0-----|-------------|-0-----0----2-|
E|-------------|-------------|-3-----------|--------------|

G|----0-----0--|-------------|----------2--|-------------|
D|-------------|----2-----2--|----0--0-----|----2-----2--|
A|-3-----2-----|-0-----0-----|-------------|-0-----0-----|
E|-------------|-------------|-3-----------|-------------|

G|-----------|-------------|-----------|-------------|
D|-----------|----2-----2--|-----------|----2-----2--|
A|-2----3----|-0-----------|-----------|-0-----------|
E|-----------|-------3-----|-2----3----|-------3-----|

G|----0-----0--|-------------|-------------|
D|-------------|----3-----3--|----3-----3--|
A|-0-----0-----|-0-----0-----|-0-----0-----|
E|-------------|-------------|-------------|

 [Bridge 1]
G|-------------|----0-----0--|-------------|-------------|
D|----2-----2--|-------------|----3-----3--|----3-----3--|
A|-0-----0-----|-0-----0-----|-0-----0-----|-0-----0-----|
E|-------------|-------------|-------------|-------------|

G|-------------|----0-----0--|-------------|-------------|
D|----2-----2--|-------------|----3-----3--|----3-----3--|
A|-0-----0-----|-0-----0-----|-0-----0-----|-0-----0-----|
E|-------------|-------------|-------------|-------------|

 [Bridge 2]
G|----0-----0--|----0-----0--|-------------|-------------|
D|-------------|-------------|----2-----2--|----2-----2--|
A|-3-----3-----|-3-----3-----|-0-----0-----|-0-----0-----|
E|-------------|-------------|-------------|-------------|

 [Verse 3]
G|----0-----0--|-------------|----------2--|--------------|
D|-------------|----2-----2--|----0--0-----|----2-----2---|
A|-3-----2-----|-0-----0-----|-------------|-0-----0----2-|
E|-------------|-------------|-3-----------|--------------|

G|----0-----0--|-------------|----------2--|-------------|
D|-------------|----2-----2--|----0--0-----|----2-----2--|
A|-3-----2-----|-0-----0-----|-------------|-0-----0-----|
E|-------------|-------------|-3-----------|-------------|

G|-----------|-------------|-----------|-------------|
D|-----------|----2-----2--|-----------|----2-----2--|
A|-----------|-0-----------|-----------|-0-----------|
E|-2----3----|-------3-----|-2----3----|-------3-----|

G|-----------|-------------|-----------|-------------|
D|-----------|----2-----2--|-----------|----2-----2--|
A|-----------|-0-----------|-----------|-0-----0-----|
E|-2----3----|-------3-----|-2----3----|-------------|

G|-------------|--------------|-------------|--------------|
D|----2-----2--|-----2-----2--|----2-----2--|----2-----2---|
A|-0-----0-----|--0-----0-----|-0-----0-----|-0-----0------|
E|-------------|--------------|-------------|--------------|

G|-------------|----------|
D|----2-----2--|-2--------|
A|-0-----0-----|----------|
E|-------------|----------|

Suggest correction
comments
print report bad tab
1 comment total.
0 reply
BassNTuba 52 Mar 04, 2015 01:05 PM

Lack of accuracy. The notes are all right, but repetitions are clearly off when played along with the album version of the song.

guest
You may want to rate the tab now too:
select rating
Wanna post a correction for this tab? Suggest correction