Oops, an error
Loading. Please wait.

Dust In The Wind Tab

version 2
by Kansas
1,273 views 141 this week
no commentswrite comment
1 2 3 4 5
3 more votes to show rating
add to favorites
launch autoscroll
font size
0
reset
how to read this tab
guitar tuner
backing track
0:00
0:00
×
Best way to learn
"Dust In The Wind"
Autoscroll
slow
fast
+/-
esc
set tempo
stop
Author
Dust in the Wind
By: Kansas
Tab By: wushock98

(Violin Solo)

e|---0-------------------------------------------------------------------------|
B|------3--1--0--1--3--------0--1--3------1--0-----0--1-----------0--1--0------|
G|---------------------0--2---------------------2-----------0--2-----------2---|
D|-------------------------------------------------------3---------------------|
A|-----------------------------------------------------------------------------|
E|-----------------------------------------------------------------------------|

e|------------------------------------------------------------------------------|
B|---0--1--0--------------------------------------------------------------------|
G|------------2--0--2--0--------------------------------------------------------|
D|------------------------2--0--2--0----------0--------------0------------------|
A|------------------------------------3--2--3-------0--2--3-----3--2--0--2--3---|
E|-----------------------------------------------3------------------------------|

e|-----------------------------------------------------|
B|-----------------------------------------------------|
G|---------------------------------------------------0-|
D|------------------------------------------0--2--3----|
A|---------0--2--3--2--0--2--3--2--0--2--3-------------|
E|---1--3----------------------------------------------|

e|-------------------------------------------------|
B|-------------------------------------------------|
G|---0--2--0-----0---------------------------------|
D|------------3-----3--2--3--2--0-----0------------|
A|---------------------------------3-----3--2--0---|
E|-------------------------------------------------|

e|-------------------------------------------------------|
B|-------------------------------------------------------|
G|------------------------------------------------2--0---|
D|---------------------0--2-----0--2-----0--2--3---------|
A|---0--2--3--0--2--3--------3--------3------------------|
E|-------------------------------------------------------|

e|-------------------------------------------------|
B|-------------------------------------------------|
G|---0--2--0-----0---------------------------------|
D|------------3-----3--2--3--2--0-----0------------|
A|---------------------------------3-----3--2--0---|
E|-------------------------------------------------|
Suggest correction
Give kudos to tab author, rate the tab!
1 2 3 4 5
comments
print report bad tab
guest
You may want to rate the tab now too:
select rating
Wanna post a correction for this tab? Suggest correction