Oops, an error
Loading. Please wait.

Dust In The Wind Tab

version 3
142,216 views 90 this week
5 commentsread comments
1 2 3 4 5
excellent!
x 30
add to favorites
launch autoscroll
font size
0
reset
how to read this tab
guitar tuner
Tab Pro tools
  • play this tab
  • loop segment
  • change instrument
  • show fretboard
  • metronome
×
Best way to learn
"Dust In The Wind"
Autoscroll
slow
fast
+/-
esc
set tempo
stop
Contributor
--------------------------------------------------------------------------              
Kansas - Dust in the Wind
----------------------------------------------------------------------------

Tabbed by: blue_ice_989
Email: blue_ice_989@hotmail.com

Tuning: Standard tuning

I also put down each chord that goes with the song to help you.
    
    C                       Cmaj7
e|----------------------------------------------------=|
B|--1---------------1--------0---------------0---------|
G|----------0-------------0----------0--------------0--|
D|-------2-------------2----------2--------------2-----|
A|--3-----------3------------3-----------3-------------|
E|-----------------------------------------------------|
    Cadd9                    C
e|-----------------------------------------------------|
B|--3---------------3--------1---------------1---------|
G|----------0-------------0----------0--------------0--|
D|-------2-------------2----------2--------------2-----|
A|--3-----------3------------3-----------3-------------|
E|-----------------------------------------------------|
    Asus2                    Asus4
e|-----------------------------------------------------|
B|--0---------------0--------3--------------3----------|
G|----------2-------------2----------2--------------2--|
D|-------2-------------3----------2--------------2-----|
A|--0-----------0------------0----------0--------------|
E|-----------------------------------------------------|
    Am                        Asus2
e|-----------------------------------------------------|
B|--1---------------1---------0---------------0--------|
G|----------2-------------2-----------2-------------2--|
D|-------2-------------2-----------2-------------2-----|
A|--0-----------0-------------0-----------0------------|
E|-----------------------------------------------------|
    Cadd9                    C
e|-----------------------------------------------------|
B|--3---------------3--------1---------------1---------|
G|----------0-------------0----------0--------------0--|
D|-------2-------------2----------2--------------2-----|
A|--3-----------3------------3-----------3-------------|
E|-----------------------------------------------------|
    Cmaj7                    Cadd9
e|-----------------------------------------------------|
B|--0---------------0--------3---------------3---------|
G|----------0-------------0----------0--------------0--|
D|-------2-------------2----------2--------------2-----|
A|--3-----------3------------3-----------3-------------|
E|-----------------------------------------------------|
    Am                        Asus2
e|-----------------------------------------------------|
B|--1---------------1---------0---------------0--------|
G|----------2-------------2-----------2-------------2--|
D|-------2-------------2-----------2-------------2-----|
A|--0-----------0-------------0-----------0------------|
E|-----------------------------------------------------|
    Asus4                          Am
e|---------------------------------------------------------|
B|--3------------------3-----------1--------------1-----3--|
G|------------2----------------2-------------2-------------|
D|--------2----------------2-------------2-----------------|
A|--0-------------0----------------0--------------0-----2--|
E|---------------------------------------------------------|
    C                              G/B
e|-----------------------------------------------------------------|
B|--1------------------1-----------3-------------------3-----------|
G|------------0----------------0-------------0------------------0--|
D|--------2----------------2-------------0------------------0------|
A|--3-------------3----------------2--------------2----------------|
E|-----------------------------------------------------------------|
    Am
e|--0--------------------------------------------------------------|
B|---------------------1------------1------------------1-----------|
G|-----------2-----------------2-------------2------------------0--|
D|-------2-----------------2-------------2------------------2------|
A|--0-------------0----------------0-------------0-----------------|
E|-----------------------------------------------------------------|
    G                                         Dm7
e|--------------------------------------------1-------------------1--------|
B|--3--------------------0------------------------------1------------------|
G|-----------2---------------------0----------------2------------------2---|
D|-------2--------------------0--------0-----0-------------0---------------|
A|------------------------------------------------------------------2------|
E|--0------------3---------------------------------------------------------|
    Am                                                                G/B
e|--0--------------------------------------------------------------------|
B|----------------------1-------------------1-------------------1-----3--|
G|-----------2-------------------2--------------------2------------------|
D|-------2--------------------2--------------------2---------------------|
A|--0-------------0------------------------0--------------------0-----2--|
E|-----------------------------------------------------------------------|
    C
e|---------------------------G/B-----------------------|
B|--1---------------1--------3---------------3---------|
G|----------0-------------0----------0--------------0--|
D|-------2-------------2----------0--------------0-----|
A|--3-----------3------------2-----------2-------------|
E|-----------------------------------------------------|
    Am                       Am
e|--0--------------------------------------------------|
B|-----------------1---------1---------------1---------|
G|----------2-------------2----------2--------------0--|
D|-------2-------------2----------2--------------2-----|
A|--0-----------0------------0-----------0-------------|
E|-----------------------------------------------------|
    G                              Dm7
e|---------------------------------1----------------1----|
B|--0---------------0----------------------1-------------|
G|----------0-----------------0--------2--------------2--|
D|-------0----------------0--------0---------0-----------|
A|-------------------------------------------------------|
E|--3----------3-----------------------------------------|
    Am                        Am
e|--0--------------------------------------------------|
B|------------------1---------1---------------1--------|
G|-----------2-------------2----------2----------------|
D|-------2-------------2----------2--------------2-----|
A|--0-----------0-------------0----------0-------------|
E|-----------------------------------------------------|
    D/F#                       G
e|---------------------------------------------------------|
B|--3---------------3----------0------------------0--------|
G|----------2---------------0-----------0------------------|
D|-------0--------------0------------0---------------------|
A|------------------------------------------------------2--|
E|--2----------2---------------3-------------3-------------|
    Am                        Am/G
e|-------------------------------------------------------|
B|--1---------------1---------1---------------1----------|
G|----------2-------------2-----------2--------------2---|
D|-------2-------------2-----------2-------------2-------|
A|--0-----------0----------------------------------------|
E|-----------------------------3----------3--------------|
    D/F#                       G
e|---------------------------------------------------------|
B|--3---------------3----------0------------------0--------|
G|----------2---------------0-----------0------------------|
D|-------0--------------0------------0---------------------|
A|------------------------------------------------------2--|
E|--2----------2---------------3-------------3-------------|
    Am                                    G/B
e|-------------------------------------------|
B|--0-h-1--------------0---------0h1------3--|
G|--------------2-------------2--------------|
D|-----------2-------------2-----------------|
A|--0---------------0------------0--------2--|
E|-------------------------------------------|
    Am(add9)
e|----------------------------------------------------------|
B|--0-----------------0-----------0----------------0--------|
G|-----------5----------------5------------5----------------|
D|-------7----------------7------------7---------------7p5--|
A|--0------------0----------------0-----------0-------------|
E|----------------------------------------------------------|
    G/a
e|-------------------------------------------------------------|
B|--0-----------------0-----------0----------------0-----------|
G|-----------7----------------7------------7----------------7--|
D|-------5----------------5------------5----------------5------|
A|--0------------0----------------0-----------0----------------|
E|-------------------------------------------------------------|
    F(#11)/A 
e|-------------------------------------------------------------|
B|--0-----------------0-----------0----------------0-----------|
G|-----------5----------------5------------5----------------5--|
D|-------3----------------3------------3----------------3------|
A|--0------------0----------------0-----------0----------------|
E|-------------------------------------------------------------|
    F6(#11)/A
e|-------------------------------------------------------------|
B|--3-----------------3-----------0----------------0-----------|
G|-----------5----------------5------------5----------------5--|
D|-------3----------------3------------3----------------3------|
A|--0------------0----------------0-----------0----------------|
E|-------------------------------------------------------------|
    Am(add9)
e|-------------------------------------------------------------------------|
B|--0---------------------0--------------0----------------------0----------|
G|----------------5----------------5-----------------5---------------------|
D|----------7----------------7-----------------7--------------------7p5----|
A|--0------------------0----------------0-----------------0----------------|
E|-------------------------------------------------------------------------|
    G/A
e|-------------------------------------------------------------------------|
B|--0---------------------0------------0------------------------0----------|
G|----------------7---------------7-------------------7-------------------7|
D|----------5----------------5------------------5--------------------5-----|
A|--0-----------------0----------------0------------------0----------------|
E|-------------------------------------------------------------------------|
    F(#11)/A
e|-------------------------------------------------------------------------|
B|--0---------------------0------------0-------------------------0---------|
G|----------------5---------------5-------------------5-------------------5|
D|----------3----------------3------------------3--------------------3-----|
A|--0-----------------0----------------0------------------0----------------|
E|-------------------------------------------------------------------------|
    F6(11)/A
e|-------------------------------------------------------------------------|
B|--3---------------------3------------0-------------------------0---------|
G|---------------5----------------5-------------------5-------------------5|
D|----------3----------------3------------------3--------------------3-----|
A|--0-----------------0----------------0--------------------0--------------|
E|-------------------------------------------------------------------------|
    D/F#                               G
e|-----------------------------------------------------------------------|
B|--3---------------------3------------0-------------------------0-------|
G|---------------2---------------0--------------------0------------------|
D|----------0----------------0------------------0------------------------|
A|---------------------------------------------------------------------2-|
E|--2-----------------2----------------3--------------------3------------|
    Am                                    Am/G
e|-------------------------------------------------------------------------|
B|--1----------------------1--------------1--------------------1-----------|
G|---------------2--------------------2--------------2-------------------2-|
D|----------2--------------------2--------------2-------------------2------|
A|--0-----------------0----------------------------------------------------|
E|----------------------------------------3--------------3-----------------|
    D/F#                       G
e|---------------------------------------------------------|
B|--3---------------3----------0------------------0--------|
G|----------2---------------0-----------0------------------|
D|-------0--------------0------------0---------------------|
A|------------------------------------------------------2--|
E|--2----------2---------------3-------------3-------------|
    Am                       Am/G
e|-------------------------------------------------------|
B|--1---------------1---------1---------------1----------|
G|----------2-------------2-----------2--------------2---|
D|-------2-------------2-----------2-------------2-------|
A|--0-----------0----------------------------------------|
E|----------------------------3----------3---------------|
    D/F#                       G
e|---------------------------------------------------------|
B|--3---------------3----------0------------------0--------|
G|----------2---------------0-----------0------------------|
D|-------0--------------0------------0---------------------|
A|------------------------------------------------------2--|
E|--2----------2---------------3-------------3-------------|
    Am                         Asus2
e|-----------0--------------0-----------0----------------|
B|--1----------------1---------0--------------0-------3--|
G|--------------------------------------------------0----|
D|-------1---------------2----------2--------------------|
A|--0------------0-------------0-----------0-------------|
E|-------------------------------------------------------|
    asus4(minor13)             Am
e|-----------1--------------1-----------0-------------0----|
B|--3----------------3---------1--------------1------------|
G|---------------------------------------------------------|
D|-------2---------------2----------2--------------2-------|
A|--0------------0-------------0-----------0---------------|
E|---------------------------------------------------------|
    Asus2                          Asus(minor13)
e|-----------0-------------------------1--------------1---|
B|--0----------------0-------3-----3-----------3----------|
G|--------------------------------------------------------|
D|-------2---------------2-------------2----------2-------|
A|--0------------0-----------------0-------0--------------|
E|--------------------------------------------------------|

| /  slide up
| \  slide down
| h  hammer-on
| p  pull-off
| ~  vibrato
| +  harmonic
| x  Mute note
=========================================
I sure hope this is good for you. I'm positive that this is 100% correct.
I'm sorry i wasn't able to put more than one measure than on a line. But
it all goes in order.

Lyrics to Dust In The Wind by Kansas:

I close my eyes
only for a moment
and the moments gone
all my dreams
pass before my eyes a curiosity
dust in the wind
all we are dust in the wind

Same old song
just a drop of water
in the endless see
all we do
crumbles to the ground
though we refuse to see
dust in the wind


Now, don´t hang on
nothing last forever
but the earth and sky
it slips away

And all your money
won`t another minute buy

Dust in the wind
all we are dust in the wind
dust in the wind
dust in the wind
comments
print report bad tab
5 comments total. Showing first comments.
0 reply
x50fx donkey wrote on June 11 2007, 07:46 pm

best 1 yet great job-- actuallyu has the whole song--

0 reply
ApolloSoldier wrote on March 14 2008, 10:04 pm

best tab for this song. should be highest ranked. i have the actual music sheet for this and both this tab and the sheet are identical.

0 reply
Guitarmaster94 wrote on June 25 2008, 10:44 am

i saw ur vid on youtube, nice tab

I want to post or [tab]
guest
You may want to rate the tab now too:
select rating
Please do not post tabs as comments. Select "correction" instead!