Oops, an error
Loading. Please wait.
We have an official Dust In The Wind tab made by UG professional guitarists. Check out the tab »
×
by Kansas
6,587 views 96 this week
no commentswrite comment
1 2 3 4 5
x 11
add to favorites
×
Save as Personal and add changes to this tab that will be seen only by you. Learn more ›
×
You can save this tab as Personal to edit and correct it or add notes. All changes will be seen only by you. Learn more »
launch autoscroll
font size
0
reset
how to read this tab
guitar tuner
backing track
0:00
0:00
edit
Autoscroll
slow
fast
+/-
esc
set tempo
stop
Author
Difficulty
                               Dust In The Wind                                 


                                    Kansas

Instruments:
- G #1
- G #2 (NASHVILLE TUNING)
- Violín
- Viola
- Voice Melody
- Chorus


- Guitar #1:

Kerry Livgren



          Intro                                                              
     S    E     S S S S S S E  S S S S S S    E  S S S S S S E  S S S S S S  
E||----|-----------------------------------|--------------------------------|
B||----|--1-----------1-----0--------0-----|--3--------3-----1--------1-----|
G||----|----------0-------0------0-------0-|-------0-------0------0-------0-|
D||----|--------2-------2------2-------2---|-----2-------2------2-------2---|
A||----|--3---------3-------3------3-------|--3------3-------3------3-------|
E||----|-----------------------------------|--------------------------------|


  E  S S S S S S E  S S S S S S    E  S S S S S S E  S S S S S S  
--------------------------------|--------------------------------|
--0--------0-----3--------3-----|--1--------1-----0--------0-----|
-------2-------0------2-------2-|-------2-------2------2-------2-|
-----2-------2------2-------2---|-----2-------2------2-------2---|
--0------0-------0------0-------|--0------0-------0------0-------|
--------------------------------|--------------------------------|


  E  S S S S S S E  S S S S S S    E  S S S S S S E  S S S S S S  
--------------------------------|--------------------------------|
--3--------3-----1--------1-----|--0--------0-----3--------3-----|
-------0-------0------0-------0-|-------0-------0------0-------0-|
-----2-------2------2-------2---|-----2-------2------2-------2---|
--3------3-------3------3-------|--3------3-------3------3-------|
--------------------------------|--------------------------------|


  E  S S S S S S E  S S S S S S    E  S S S S S S E  S S E  E   
--------------------------------|------------------------------|
--1--------1-----0--------0-----|--3--------3-----1------1--3--|
-------2-------2------2-------2-|-------2-------2------2-------|
-----2-------2------2-------2---|-----2-------2------2---------|
--0------0-------0------0-------|--0------0-------0------0--2--|
--------------------------------|------------------------------|


  Verso Riff                                                              
  E          S S S S S S E  S S S S S S    E  S S S S S S E  S S S S S S  
----------------------------------------|--0-----------------------------|
--1----------------1-----3--------3-----|-----------1-----1--------1-----|
---------------0-------0------0-------0-|-------2-------2------2-------2-|
-------------2-------2------0-------0---|-----2-------2------2-------2---|
--3--------------3-------2------2-------|--0------0-------0------0-------|
----------------------------------------|--------------------------------|


  E  S S S S S S E  S S S S S S    E  S S S S S S E  S S E  E   
-----------------1--------1-----|--0---------------------------|
--0--------0----------1-------1-|-----------1-----1------1--3--|
-------0-------0----2-------2---|-------2-------2------2-------|
-----0-------0---0------0-------|-----2-------2------2---------|
--------------------------------|--0------0-------0------0--2--|
--3------3----------------------|------------------------------|


  E  S S S S S S E  S S S S S S    E  S S S S S S E  S S S S S S  
--------------------------------|--0-----------------------------|
--1--------1-----3--------3-----|-----------1-----1--------1-----|
-------0-------0------0-------0-|-------2-------2------2-------2-|
-----2-------2------0-------0---|-----2-------2------2-------2---|
--3------3-------2------2-------|--0------0-------0------0-------|
--------------------------------|--------------------------------|


  E  S S S S S S E  S S S S S S    E  S S S S S S E  S S S S S S  
-----------------1--------1-----|--0-----------------------------|
--0--------0----------1-------1-|-----------1-----1--------1-----|
-------0-------0----2-------2---|-------2-------2------2-------2-|
-----0-------0---0------0-------|-----2-------2------2-------2---|
--------------------------------|--0------0-------0------0-------|
--3------3----------------------|--------------------------------|


  Coro                                                              
  E    S S S S S S E  S S S S S S    E  S S S S S S E  S S S S S S  
----------------------------------|--------------------------------|
--3----------3-----0--------0-----|--1--------1-----1--------1-----|
---------2-------0------0-------0-|-------2-------2------2-------2-|
-------0-------0------0-------0---|-----2-------2------2-------2---|
----------------------------------|--0------0----------------------|
--2--------2-------3------3-------|-----------------3------3-------|


  E  S S S S S S E  S S S S S S    S  S S S S S S S S  E.  Q     
--------------------------------|-------------------------------|
--3--------3-----0--------0-----|--0h-1-------0-----0h-1---3----|
-------2-------0------0-------0-|---------2-------2-------------|
-----0-------0------0-------0---|-------2-------2---------------|
--------------------------------|--0--------0-------0------2----|
--2------2-------3------3-------|-------------------------------|


  Verso Riff                                                              
  E          S S S S S S E  S S S S S S    E  S S S S S S E  S S S S S S  
----------------------------------------|--0-----------------------------|
--1----------------1-----3--------3-----|-----------1-----1--------1-----|
---------------0-------0------0-------0-|-------2-------2------2-------2-|
-------------2-------2------0-------0---|-----2-------2------2-------2---|
--3--------------3-------2------2-------|--0------0-------0------0-------|
----------------------------------------|--------------------------------|


  E  S S S S S S E  S S S S S S    E  S S S S S S E  S S E  E   
-----------------1--------1-----|--0---------------------------|
--0--------0----------1-------1-|-----------1-----1------1--3--|
-------0-------0----2-------2---|-------2-------2------2-------|
-----0-------0---0------0-------|-----2-------2------2---------|
--------------------------------|--0------0-------0------0--2--|
--3------3----------------------|------------------------------|


  E  S S S S S S E  S S S S S S    E  S S S S S S E  S S S S S S  
--------------------------------|--0-----------------------------|
--1--------1-----3--------3-----|-----------1-----1--------1-----|
-------0-------0------0-------0-|-------2-------2------2-------2-|
-----2-------2------0-------0---|-----2-------2------2-------2---|
--3------3-------2------2-------|--0------0-------0------0-------|
--------------------------------|--------------------------------|


  E  S S S S S S E  S S S S S S    E  S S S S S S E  S S S S S S  
-----------------1--------1-----|--0-----------------------------|
--0--------0----------1-------1-|-----------1-----1--------1-----|
-------0-------0----2-------2---|-------2-------2------2-------2-|
-----0-------0---0------0-------|-----2-------2------2-------2---|
--------------------------------|--0------0-------0------0-------|
--3------3----------------------|--------------------------------|


  Coro                                                              
  E    S S S S S S E  S S S S S S    E  S S S S S S E  S S S S S S  
----------------------------------|--------------------------------|
--3----------3-----0--------0-----|--1--------1-----1--------1-----|
---------2-------0------0-------0-|-------2-------2------2-------2-|
-------0-------0------0-------0---|-----2-------2------2-------2---|
----------------------------------|--0------0----------------------|
--2--------2-------3------3-------|-----------------3------3-------|


                                   Interludio                             
  E  S S S S S S E  S S S S S S    E          S S S S S S E  S S S S S S  
--------------------------------|----------------------------------------|
--3--------3-----0--------0-----|--0----------------0-----0--------0-----|
-------2-------0------0-------0-|---------------5-------5------5-------0-|
-----0-------0------0-------0---|-------------7-------7------7-------7---|
--------------------------------|--0--------------0-------0------0-------|
--2------2-------3------3-------|----------------------------------------|


  E  S S S S S S E  S S S S S S    E  S S S S S S E  S S S S S S  
--------------------------------|--------------------------------|
--0--------0-----0--------0-----|--0--------0-----0--------0-----|
-------7-------7------7-------7-|-------5-------5------5-------5-|
-----5-------5------5-------5---|-----3-------3------3-------3---|
--0------0-------0------0-------|--0------0-------0------0-------|
--------------------------------|--------------------------------|


  E  S S S S S S E  S S S S S S    E  S S S S S S E  S S S S S S  
--------------------------------|--------------------------------|
--3--------3-----0--------0-----|--0--------0-----0--------0-----|
-------5-------5------5-------5-|-------5-------5------5-------0-|
-----3-------3------3-------3---|-----7-------7------7-------7---|
--0------0-------0------0-------|--0------0-------0------0-------|
--------------------------------|--------------------------------|


  E  S S S S S S E  S S S S S S    E  S S S S S S E  S S S S S S  
--------------------------------|--------------------------------|
--0--------0-----0--------0-----|--0--------0-----0--------0-----|
-------7-------7------7-------7-|-------5-------5------5-------5-|
-----5-------5------5-------5---|-----3-------3------3-------3---|
--0------0-------0------0-------|--0------0-------0------0-------|
--------------------------------|--------------------------------|


  E  S S S S S S E  S S S S S S    E  S S S S S S E  S S S S S S  
--------------------------------|--------------------------------|
--3--------3-----0--------0-----|--0--------0-----0--------0-----|
-------5-------5------5-------5-|-------5-------5------5-------0-|
-----3-------3------3-------3---|-----7-------7------7-------7---|
--0------0-------0------0-------|--0------0-------0------0-------|
--------------------------------|--------------------------------|


  E  S S S S S S E  S S S S S S    E  S S S S S S E  S S S S S S  
--------------------------------|--------------------------------|
--0--------0-----0--------0-----|--0--------0-----0--------0-----|
-------7-------7------7-------7-|-------5-------5------5-------5-|
-----5-------5------5-------5---|-----3-------3------3-------3---|
--0------0-------0------0-------|--0------0-------0------0-------|
--------------------------------|--------------------------------|


  E  S S S S S S E  S S S S S S  
--------------------------------|
--3--------3-----0--------0-----|
-------5-------5------5-------5-|
-----3-------3------3-------3---|
--0------0-------0------0-------|
--------------------------------|


  Solo Robby Steinhardt                             
  E                     S S S S S S E  S S S S S S  
---------------------------------------------------|
--1---------------------------1-----0--------0-----|
--------------------------0-------0------0-------0-|
------------------------2-------2------2-------2---|
--3-------------------------3-------3------3-------|
---------------------------------------------------|


  E  S S S S S S E  S S S S S S    E  S S S S S S E  S S S S S S  
--------------------------------|--------------------------------|
--3--------3-----1--------1-----|--0--------0-----3--------3-----|
-------0-------0------0-------0-|-------2-------0------2-------2-|
-----2-------2------2-------2---|-----2-------2------2-------2---|
--3------3-------3------3-------|--0------0-------0------0-------|
--------------------------------|--------------------------------|


  E  S S S S S S E  S S S S S S    E  S S S S S S E  S S S S S S  
--------------------------------|--------------------------------|
--1--------1-----0--------0-----|--3--------3-----1--------1-----|
-------2-------2------2-------2-|-------0-------0------0-------0-|
-----2-------2------2-------2---|-----2-------2------2-------2---|
--0------0-------0------0-------|--3------3-------3------3-------|
--------------------------------|--------------------------------|


  E  S S S S S S E  S S S S S S    E  S S S S S S E  S S S S S S  
--------------------------------|--------------------------------|
--0--------0-----3--------3-----|--1--------1-----0--------0-----|
-------0-------0------0-------0-|-------2-------2------2-------2-|
-----2-------2------2-------2---|-----2-------2------2-------2---|
--3------3-------3------3-------|--0------0-------0------0-------|
--------------------------------|--------------------------------|


                                 Verso Riff                             
  E  S S S S S S E  S S E  E     E          S S S S S S E  S S S S S S  
------------------------------|----------------------------------------|
--3--------3-----1------1--3--|--1----------------1-----3--------3-----|
-------2-------2------2-------|---------------0-------0------0-------0-|
-----2-------2------2---------|-------------2-------2------0-------0---|
--0------0-------0------0--2--|--3--------------3-------2------2-------|
------------------------------|----------------------------------------|


  E  S S S S S S E  S S S S S S    E  S S S S S S E  S S S S S S  
--0-----------------------------|-----------------1--------1-----|
-----------1-----1--------1-----|--0--------0----------1-------1-|
-------2-------2------2-------2-|-------0-------0----2-------2---|
-----2-------2------2-------2---|-----0-------0---0------0-------|
--0------0-------0------0-------|--------------------------------|
--------------------------------|--3------3----------------------|


  E  S S S S S S E  S S E  E     E  S S S S S S E  S S S S S S  
--0---------------------------|--------------------------------|
-----------1-----1------1--3--|--1--------1-----3--------3-----|
-------2-------2------2-------|-------0-------0------0-------0-|
-----2-------2------2---------|-----2-------2------0-------0---|
--0------0-------0------0--2--|--3------3-------2------2-------|
------------------------------|--------------------------------|


  E  S S S S S S E  S S S S S S    E  S S S S S S E  S S S S S S  
--0-----------------------------|-----------------1--------1-----|
-----------1-----1--------1-----|--0--------0----------1-------1-|
-------2-------2------2-------2-|-------0-------0----2-------2---|
-----2-------2------2-------2---|-----0-------0---0------0-------|
--0------0-------0------0-------|--------------------------------|
--------------------------------|--3------3----------------------|


                                   Coro                             
  E  S S S S S S E  S S S S S S    E    S S S S S S E  S S S S S S  
--0-----------------------------|----------------------------------|
-----------1-----1--------1-----|--3----------3-----0--------0-----|
-------2-------2------2-------2-|---------2-------0------0-------0-|
-----2-------2------2-------2---|-------0-------0------0-------0---|
--0------0-------0------0-------|----------------------------------|
--------------------------------|--2--------2-------3------3-------|


  E  S S S S S S E  S S S S S S    E  S S S S S S E  S S S S S S  
--------------------------------|--------------------------------|
--1--------1-----1--------1-----|--3--------3-----0--------0-----|
-------2-------2------2-------2-|-------2-------0------0-------0-|
-----2-------2------2-------2---|-----0-------0------0-------0---|
--0------0----------------------|--------------------------------|
-----------------3------3-------|--2------2-------3------3-------|


  E  S S S S S S E  S S S S S S    E  S S S S S S E  S S S S S S  
--------------------------------|--------------------------------|
--1--------1-----1--------1-----|--3--------3-----0--------0-----|
-------2-------2------2-------2-|-------2-------0------0-------0-|
-----2-------2------2-------2---|-----0-------0------0-------0---|
--0------0----------------------|--------------------------------|
-----------------3------3-------|--2------2-------3------3-------|


  E  S S S S S S E  S S S S S S    E  S S S S S S E  S S S S S S  
--------------------------------|--------------------------------|
--1--------1-----1--------1-----|--3--------3-----0--------0-----|
-------2-------2------2-------2-|-------2-------0------0-------0-|
-----2-------2------2-------2---|-----0-------0------0-------0---|
--0------0----------------------|--------------------------------|
-----------------3------3-------|--2------2-------3------3-------|


  Outro                                                              
  E     S S S S S S E  S S S S S S    E  S S S S S S E  S S S S S S  
--0-----------------0--------------|--0--------------0--------------|
--1-----------1-----0--------0-----|--3--------3-----1--------1-----|
----------2-------2------2-------2-|-------2-------2------2-------2-|
--------2-------2------2-------2---|-----2-------2------2-------2---|
--0---------0-------0------0-------|--0------0-------0------0-------|
-----------------------------------|--------------------------------|


  E  S S S S S S E  S S S S S S    E  S S S S S S E  S S S S S S  
--0--------------0--------------|--0--------------0--------------|
--0--------0-----3--------3-----|--1--------1-----0--------0-----|
-------2-------2------2-------2-|-------2-------2------2-------2-|
-----2-------2------2-------2---|-----2-------2------2-------2---|
--0------0-------0------0-------|--0------0-------0------0-------|
--------------------------------|--------------------------------|


  E  S S S S S S E  S S S S S S    E  S S S S S S E  S S S S S S  
--0--------------0--------------|--0--------------0--------------|
--3--------3-----1--------1-----|--0--------0-----3--------3-----|
-------2-------2------2-------2-|-------2-------2------2-------2-|
-----2-------2------2-------2---|-----2-------2------2-------2---|
--0------0-------0------0-------|--0------0-------0------0-------|
--------------------------------|--------------------------------|


  E  S S S S S S E  S S S S S S    E  S S S S S S E  S S S S S S  
--0--------------0--------------|--0--------------0--------------|
--1--------1-----0--------0-----|--3--------3-----1--------1-----|
-------2-------2------2-------2-|-------2-------2------2-------2-|
-----2-------2------2-------2---|-----2-------2------2-------2---|
--0------0-------0------0-------|--0------0-------0------0-------|
--------------------------------|--------------------------------|


  E  S S S S S S E  S S S S S S    E  S S S S S S E  S S S S S S  
--0--------------0--------------|--0--------------0--------------|
--0--------0-----3--------3-----|--1--------1-----0--------0-----|
-------2-------2------2-------2-|-------2-------2------2-------2-|
-----2-------2------2-------2---|-----2-------2------2-------2---|
--0------0-------0------0-------|--0------0-------0------0-------|
--------------------------------|--------------------------------|


  E  S S S S S S E  S S S S S S    E  S S S S S S E  S S S S S S  
--0--------------0--------------|--0--------------0--------------|
--3--------3-----1--------1-----|--0--------0-----3--------3-----|
-------2-------2------2-------2-|-------2-------2------2-------2-|
-----2-------2------2-------2---|-----2-------2------2-------2---|
--0------0-------0------0-------|--0------0-------0------0-------|
--------------------------------|--------------------------------|


  ^                  
  W                  
--0----------------||
--1----------------||
--2----------------||
--2----------------||
--0----------------||
-------------------||




- Guitar #2:
                             
Richard Williams



          Intro - (NASHVILLE TUNING)                             
     S    E                          S S S S S S E  S S S S S S  
E||----|--------------------------------------------------------|
B||----|--1--------------------------------1-----0--------0-----|
G||----|-------------------------------0-------0------0-------0-|
D||----|-----------------------------2-------2------2-------2---|
A||----|--3------------------------------3-------3------3-------|
E||----|--------------------------------------------------------|


  E  S S S S S S E  S S S S S S    E  S S S S S S E  S S S S S S  
--------------------------------|--------------------------------|
--3--------3-----1--------1-----|--0--------0-----3--------3-----|
-------0-------0------0-------0-|-------2-------0------2-------2-|
-----2-------2------2-------2---|-----2-------2------2-------2---|
--3------3-------3------3-------|--0------0-------0------0-------|
--------------------------------|--------------------------------|


  E  S S S S S S E  S S S S S S    E  S S S S S S E  S S S S S S  
--------------------------------|--------------------------------|
--1--------1-----0--------0-----|--3--------3-----1--------1-----|
-------2-------2------2-------2-|-------0-------0------0-------0-|
-----2-------2------2-------2---|-----2-------2------2-------2---|
--0------0-------0------0-------|--3------3-------3------3-------|
--------------------------------|--------------------------------|


  E  S S S S S S E  S S S S S S    E  S S S S S S E  S S S S S S  
--------------------------------|--------------------------------|
--0--------0-----3--------3-----|--1--------1-----0--------0-----|
-------0-------0------0-------0-|-------2-------2------2-------2-|
-----2-------2------2-------2---|-----2-------2------2-------2---|
--3------3-------3------3-------|--0------0-------0------0-------|
--------------------------------|--------------------------------|


                                 Verso Riff                             
  E  S S S S S S E  S S E  E     E          S S S S S S E  S S S S S S  
------------------------------|----------------------------------------|
--3--------3-----1------1--3--|--1----------------1-----3--------3-----|
-------2-------2------2----0--|---------------0-------0------0-------0-|
-----2-------2------2---------|-------------2-------2------0-------0---|
--0------0-------0------0--2--|--3--------------3-------2------2-------|
------------------------------|----------------------------------------|


  E  S S S S S S E  S S S S S S    E  S S S S S S E  S S S S S  S  
--0-----------------------------|-----------------1--------1------|
-----------1-----1--------1-----|--0--------0----------1----------|
-------2-------2------2-------2-|-------0-------0----2-------2p-0-|
-----2-------2------2-------2---|-----0-------0---0------0--------|
--0------0-------0------0-------|---------------------------------|
--------------------------------|--3------3-----------------------|


  E  S S S S S S E  S S E  E     E  S S S S S S E  S S S S S S  
--0---------------------------|--------------------------------|
-----------1-----1------1--3--|--1--------1-----3--------3-----|
-------2-------2------2----0--|-------0-------0------0-------0-|
-----2-------2------2---------|-----2-------2------0-------0---|
--0------0-------0------0--2--|--3------3-------2------2-------|
------------------------------|--------------------------------|


  E  S S S S S S E  S S S S S S    E  S S S S S S E  S S S S S  S  
--0-----------------------------|-----------------1--------1------|
-----------1-----1--------1-----|--0--------0----------1----------|
-------2-------2------2-------2-|-------0-------0----2-------2p-0-|
-----2-------2------2-------2---|-----0-------0---0------0--------|
--0------0-------0------0-------|---------------------------------|
--------------------------------|--3------3-----------------------|


                                    Coro                              
  E  S S S S S S E  S S S S S  S    E    S S S S S S E  S S S S S  S  
--0------------------------------|-----------------------------------|
-----------1-----1--------1------|--3----------3-----0--------0------|
-------2-------2------2----------|---------2-------0------0----------|
-----2-------2------2-------2p-0-|-------0-------0------0------------|
--0------0-------0------0--------|------------------------------2p-0-|
---------------------------------|--2--------2-------3------3--------|


  E  S S S S S S E  S S S S S  S    E  S S S S S S E  S S S S S  S  
---------------------------------|---------------------------------|
--1--------1-----1--------1------|--3--------3-----0--------0------|
-------2-------2------2----------|-------2-------0------0----------|
-----2-------2------2-------2p-0-|-----0-------0------0------------|
--0------0-----------------------|----------------------------2p-0-|
-----------------3------3--------|--2------2-------3------3--------|


                                  Verso Riff                             
  S  S S S S S S S S  E.  Q       E          S S S S S S E  S S S S S S  
-------------------------------|----------------------------------------|
--0h-1-------0-----0h-1---3----|--1----------------1-----3--------3-----|
---------2-------2--------0----|---------------0-------0------0-------0-|
-------2-------2---------------|-------------2-------2------0-------0---|
--0--------0-------0------2----|--3--------------3-------2------2-------|
-------------------------------|----------------------------------------|


  E  S S S S S S E  S S S S S S    E  S S S S S S E  S S S S S  S  
--0-----------------------------|-----------------1--------1------|
-----------1-----1--------1-----|--0--------0----------1----------|
-------2-------2------2-------2-|-------0-------0----2-------2p-0-|
-----2-------2------2-------2---|-----0-------0---0------0--------|
--0------0-------0------0-------|---------------------------------|
--------------------------------|--3------3-----------------------|


  E  S S S S S S E  S S E  E     E  S S S S S S E  S S S S S S  
--0---------------------------|--------------------------------|
-----------1-----1------1--3--|--1--------1-----3--------3-----|
-------2-------2------2----0--|-------0-------0------0-------0-|
-----2-------2------2---------|-----2-------2------0-------0---|
--0------0-------0------0--2--|--3------3-------2------2-------|
------------------------------|--------------------------------|


  E  S S S S S S E  S S S S S S    E  S S S S S S E  S S S S S  S  
--0-----------------------------|-----------------1--------1------|
-----------1-----1--------1-----|--0--------0----------1----------|
-------2-------2------2-------2-|-------0-------0----2-------2p-0-|
-----2-------2------2-------2---|-----0-------0---0------0--------|
--0------0-------0------0-------|---------------------------------|
--------------------------------|--3------3-----------------------|


                                    Coro                              
  E  S S S S S S E  S S S S S  S    E    S S S S S S E  S S S S S  S  
--0------------------------------|-----------------------------------|
-----------1-----1--------1------|--3----------3-----0--------0------|
-------2-------2------2----------|---------2-------0------0----------|
-----2-------2------2-------2p-0-|-------0-------0------0------------|
--0------0-------0------0--------|------------------------------2p-0-|
---------------------------------|--2--------2-------3------3--------|


  E  S S S S S S E  S S S S S  S    E  S S S S S S E  S S S S S  S  
---------------------------------|---------------------------------|
--1--------1-----1--------1------|--3--------3-----0--------0------|
-------2-------2------2----------|-------2-------0------0----------|
-----2-------2------2-------2p-0-|-----0-------0------0------------|
--0------0-----------------------|----------------------------2p-0-|
-----------------3------3--------|--2------2-------3------3--------|


  Interludio                                                              
  E          S S S S S S E  S S S S S S    E  S S S S S S E  S S S S S S  
----------------------------------------|--------------------------------|
--0----------------0-----0--------0-----|--0--------0-----0--------0-----|
---------------5-------5------5-------0-|-------7-------7------7-------7-|
-------------7-------7------7-------7---|-----5-------5------5-------5---|
--0--------------0-------0------0-------|--0------0-------0------0-------|
----------------------------------------|--------------------------------|


  E  S S S S S S E  S S S S S S    E  S S S S S S E  S S S S S S  
--------------------------------|--------------------------------|
--0--------0-----0--------0-----|--3--------3-----0--------0-----|
-------5-------5------5-------5-|-------5-------5------5-------5-|
-----3-------3------3-------3---|-----3-------3------3-------3---|
--0------0-------0------0-------|--0------0-------0------0-------|
--------------------------------|--------------------------------|


  E  S S S S S S E  S S S S S S    E  S S S S S S E  S S S S S S  
--------------------------------|--------------------------------|
--0--------0-----0--------0-----|--0--------0-----0--------0-----|
-------5-------5------5-------0-|-------7-------7------7-------7-|
-----7-------7------7-------7---|-----5-------5------5-------5---|
--0------0-------0------0-------|--0------0-------0------0-------|
--------------------------------|--------------------------------|


  E  S S S S S S E  S S S S S S    E  S S S S S S E  S S S S S S  
--------------------------------|--------------------------------|
--0--------0-----0--------0-----|--3--------3-----0--------0-----|
-------5-------5------5-------5-|-------5-------5------5-------5-|
-----3-------3------3-------3---|-----3-------3------3-------3---|
--0------0-------0------0-------|--0------0-------0------0-------|
--------------------------------|--------------------------------|


  E  S S S S S S E  S S S S S S    E  S S S S S S E  S S S S S S  
--------------------------------|--------------------------------|
--0--------0-----0--------0-----|--0--------0-----0--------0-----|
-------5-------5------5-------0-|-------7-------7------7-------7-|
-----7-------7------7-------7---|-----5-------5------5-------5---|
--0------0-------0------0-------|--0------0-------0------0-------|
--------------------------------|--------------------------------|


  E  S S S S S S E  S S S S S S    E  S S S S S S E  S S S S S S  
--------------------------------|--------------------------------|
--0--------0-----0--------0-----|--3--------3-----0--------0-----|
-------5-------5------5-------5-|-------5-------5------5-------5-|
-----3-------3------3-------3---|-----3-------3------3-------3---|
--0------0-------0------0-------|--0------0-------0------0-------|
--------------------------------|--------------------------------|


  Solo Robby Steinhardt                             
  E                     S S S S S S E  S S S S S S  
---------------------------------------------------|
--1---------------------------1-----0--------0-----|
--------------------------0-------0------0-------0-|
------------------------2-------2------2-------2---|
--3-------------------------3-------3------3-------|
---------------------------------------------------|


  E  S S S S S S E  S S S S S S    E  S S S S S S E  S S S S S S  
--------------------------------|--------------------------------|
--3--------3-----1--------1-----|--0--------0-----3--------3-----|
-------0-------0------0-------0-|-------2-------0------2-------2-|
-----2-------2------2-------2---|-----2-------2------2-------2---|
--3------3-------3------3-------|--0------0-------0------0-------|
--------------------------------|--------------------------------|


  E  S S S S S S E  S S S S S S    E  S S S S S S E  S S S S S S  
--------------------------------|--------------------------------|
--1--------1-----0--------0-----|--3--------3-----1--------1-----|
-------2-------2------2-------2-|-------0-------0------0-------0-|
-----2-------2------2-------2---|-----2-------2------2-------2---|
--0------0-------0------0-------|--3------3-------3------3-------|
--------------------------------|--------------------------------|


  E  S S S S S S E  S S S S S S    E  S S S S S S E  S S S S S S  
--------------------------------|--------------------------------|
--0--------0-----3--------3-----|--1--------1-----0--------0-----|
-------0-------0------0-------0-|-------2-------2------2-------2-|
-----2-------2------2-------2---|-----2-------2------2-------2---|
--3------3-------3------3-------|--0------0-------0------0-------|
--------------------------------|--------------------------------|


                                 Verso Riff                             
  E  S S S S S S E  S S E  E     E          S S S S S S E  S S S S S S  
------------------------------|----------------------------------------|
--3--------3-----1------1--3--|--1----------------1-----3--------3-----|
-------2-------2------2----0--|---------------0-------0------0-------0-|
-----2-------2------2---------|-------------2-------2------0-------0---|
--0------0-------0------0--2--|--3--------------3-------2------2-------|
------------------------------|----------------------------------------|


  E  S S S S S S E  S S S S S S    E  S S S S S S E  S S S S S  S  
--0-----------------------------|-----------------1--------1------|
-----------1-----1--------1-----|--0--------0----------1----------|
-------2-------2------2-------2-|-------0-------0----2-------2p-0-|
-----2-------2------2-------2---|-----0-------0---0------0--------|
--0------0-------0------0-------|---------------------------------|
--------------------------------|--3------3-----------------------|


  E  S S S S S S E  S S E  E     E  S S S S S S E  S S S S S S  
--0---------------------------|--------------------------------|
-----------1-----1------1--3--|--1--------1-----3--------3-----|
-------2-------2------2----0--|-------0-------0------0-------0-|
-----2-------2------2---------|-----2-------2------0-------0---|
--0------0-------0------0--2--|--3------3-------2------2-------|
------------------------------|--------------------------------|


  E  S S S S S S E  S S S S S S    E  S S S S S S E  S S S S S  S  
--0-----------------------------|-----------------1--------1------|
-----------1-----1--------1-----|--0--------0----------1----------|
-------2-------2------2-------2-|-------0-------0----2-------2p-0-|
-----2-------2------2-------2---|-----0-------0---0------0--------|
--0------0-------0------0-------|---------------------------------|
--------------------------------|--3------3-----------------------|


                                    Coro                              
  E  S S S S S S E  S S S S S  S    E    S S S S S S E  S S S S S  S  
--0------------------------------|-----------------------------------|
-----------1-----1--------1------|--3----------3-----0--------0------|
-------2-------2------2----------|---------2-------0------0----------|
-----2-------2------2-------2p-0-|-------0-------0------0------------|
--0------0-------0------0--------|------------------------------2p-0-|
---------------------------------|--2--------2-------3------3--------|


  E  S S S S S S E  S S S S S  S    E  S S S S S S E  S S S S S  S  
---------------------------------|---------------------------------|
--1--------1-----1--------1------|--3--------3-----0--------0------|
-------2-------2------2----------|-------2-------0------0----------|
-----2-------2------2-------2p-0-|-----0-------0------0------------|
--0------0-----------------------|----------------------------2p-0-|
-----------------3------3--------|--2------2-------3------3--------|


  E  S S S S S S E  S S S S S  S    E  S S S S S S E  S S S S S  S  
---------------------------------|---------------------------------|
--1--------1-----1--------1------|--3--------3-----0--------0------|
-------2-------2------2----------|-------2-------0------0----------|
-----2-------2------2-------2p-0-|-----0-------0------0------------|
--0------0-----------------------|----------------------------2p-0-|
-----------------3------3--------|--2------2-------3------3--------|


  E  S S S S S S E  S S S S S  S    E  S S S S S S E  S S S S S  S  
---------------------------------|---------------------------------|
--1--------1-----1--------1------|--3--------3-----0--------0------|
-------2-------2------2----------|-------2-------0------0----------|
-----2-------2------2-------2p-0-|-----0-------0------0------------|
--0------0-----------------------|----------------------------2p-0-|
-----------------3------3--------|--2------2-------3------3--------|


  Outro                                                              
  E     S S S S S S E  S S S S S S    E  S S S S S S E  S S S S S S  
----------0-------0------0---------|-------1-------1------0-------0-|
--1-----------1-----0--------0---3-|--3--------3-----1--------1-----|
-----------------------------------|--------------------------------|
--------2-------2------2-------2---|-----2-------2------2-------2---|
--0---------0-------0------0-------|--0------0-------0------0-------|
-----------------------------------|--------------------------------|


  E  S S S S S S E  S S S S S S    E  S S S S S S E  S S S S S S  
-------0--------------1-------1-|-------0-------0------0---------|
--0--------0---3-3--------3-----|--1--------1-----0--------0---3-|
--------------------------------|--------------------------------|
-----2-------2------2-------2---|-----2-------2------2-------2---|
--0------0-------0------0-------|--0------0-------0------0-------|
--------------------------------|--------------------------------|


  E  S S S S S S E  S S S S S S    E  S S S S S S E  S S S S S S  
-------1-------1------0-------0-|-------0--------------1-------1-|
--3--------3-----1--------1-----|--0--------0---3-3--------3-----|
--------------------------------|--------------------------------|
-----2-------2------2-------2---|-----2-------2------2-------2---|
--0------0-------0------0-------|--0------0-------0------0-------|
--------------------------------|--------------------------------|


  E  S S S S S S E  S S S S S S    E  S S S S S S E  S S S S S S  
-------0-------0------0---------|-------1-------1------0-------0-|
--1--------1-----0--------0---3-|--3--------3-----1--------1-----|
--------------------------------|--------------------------------|
-----2-------2------2-------2---|-----2-------2------2-------2---|
--0------0-------0------0-------|--0------0-------0------0-------|
--------------------------------|--------------------------------|


  E  S S S S S S E  S S S S S S    E  S S S S S S E  S S S S S S  
-------0--------------1-------1-|-------0-------0------0---------|
--0--------0---3-3--------3-----|--1--------1-----0--------0---3-|
--------------------------------|--------------------------------|
-----2-------2------2-------2---|-----2-------2------2-------2---|
--0------0-------0------0-------|--0------0-------0------0-------|
--------------------------------|--------------------------------|


  E  S S S S S S E  S S S S S S    E  S S S S S S E  S S S S S S  
-------1-------1------0-------0-|-------0--------------1-------1-|
--3--------3-----1--------1-----|--0--------0---3-3--------3-----|
--------------------------------|--------------------------------|
-----2-------2------2-------2---|-----2-------2------2-------2---|
--0------0-------0------0-------|--0------0-------0------0-------|
--------------------------------|--------------------------------|


  v                  
  W                  
--0----------------||
--1----------------||
--2----------------||
--2----------------||
--0----------------||
-------------------||



- Violin:
                              
Robby Steinhardt


  Interludio                                                                    
  W                   W                   W                   W                 
-------------------|-------------------|-------------------|-------------------|
-------------------|-------------------|-------------------|-------------------|
-------------------|-------------------|-------------------|-------------------|
-------------------|-------------------|-------------------|-------------------|
-------------------|-------------------|-------------------|-------------------|
-------------------|-------------------|-------------------|-------------------|


  W                   H        S  S S S  Q       H        S S S S E.  S  
-------------------|----------------7-8-10----|---------------5-7-8---7-|
-------------------|-----------8-10-----------|-----------6-8-----------|
-------------------|--------------------------|-------------------------|
-------------------|--------------------------|-------------------------|
-------------------|--------------------------|-------------------------|
-------------------|--------------------------|-------------------------|


  Q.     S S S S S S S S S S    W                   H        S  S S S  Q     
--5------L-7-8-7-5---5-------|-------------------|----------------7-8-10----|
-------------------8---8-5---|--5----------------|-----------8-10-----------|
---------------------------7-|-------------------|--------------------------|
-----------------------------|-------------------|--------------------------|
-----------------------------|-------------------|--------------------------|
-----------------------------|-------------------|--------------------------|


  H        S S S S E.  S     Q.      S  S  S  S  S  S  S  S  S  S  
---------------5-7-8---7-|-------------------------------10-12-13-|
-----------6-8-----------|--10-------L-12-13-12----12-13----------|
-------------------------|----------------------14----------------|
-------------------------|----------------------------------------|
-------------------------|----------------------------------------|
-------------------------|----------------------------------------|


   Solo Robby Steinhardt           
   H                     H         
--15--------------------15--------|
----------------------------------|
----------------------------------|
----------------------------------|
----------------------------------|
----------------------------------|


   S  S  S  S  S  S  S  S  S  S  S  S  S  S  S  S     H         H         
--15-17-15----15----------------------------------|----------------------|
-----------18----18-17-18-17-15-17-15----15-------|----------------------|
--------------------------------------17----17-16-|--14--------14--------|
--------------------------------------------------|----------------------|
--------------------------------------------------|----------------------|
--------------------------------------------------|----------------------|


   S  S  S  S  S  S  S  S  S  S  S  S  S  S  S  S     H         H         
-----------------------------------------------17-|--15--------15--------|
--------------------15-17----15-17----15-17-18----|----------------------|
--14-16-17-14-16-17-------17-------17-------------|----------------------|
--------------------------------------------------|----------------------|
--------------------------------------------------|----------------------|
--------------------------------------------------|----------------------|


   S  S  S  S  S  S  S  S  S  S  S  S  S  S  S  S     H         H         
--15-17-15----15----------------------------------|----------------------|
-----------18----18-17-18-17-15-17-15----15-------|----------------------|
--------------------------------------17----17-16-|--14--------14--------|
--------------------------------------------------|----------------------|
--------------------------------------------------|----------------------|
--------------------------------------------------|----------------------|


- Viola:
                               
Robby Steinhardt


  Interludio                                                                    
  W                   W                   W                   W                 
-------------------|-------------------|-------------------|-------------------|
-------------------|-------------------|-------------------|-------------------|
-------------------|-------------------|-------------------|-------------------|
-------------------|-------------------|-------------------|-------------------|
-------------------|-------------------|-------------------|-------------------|
-------------------|-------------------|-------------------|-------------------|


  W                   E  S E  S E  H           E  S E  S E  Q.     E   
-------------------|------------------------|-------------------------|
--5----------------|------------------------|-------------------------|
-------------------|--7--5-4--5-7--L--------|--5--4----4-5--L------4--|
-------------------|------------------------|-------7-----------------|
-------------------|------------------------|-------------------------|
-------------------|------------------------|-------------------------|


  H.           E  E     W                   E  S E  S E  H         
---------------------|-------------------|------------------------|
---------------------|-------------------|------------------------|
---------------------|-------------------|--7--5-4--5-7--L--------|
--7------------L--5--|-------------------|------------------------|
---------------------|--7----------------|------------------------|
---------------------|-------------------|------------------------|


                                                  Solo Robby Steinhardt  
  E  S E  S E  Q.     E     H.           E  E     W                      
-------------------------|---------------------|------------------------|
-------------------------|---------------------|------------------------|
--5--4----4-5--L------4--|---------------------|------------------------|
-------7-----------------|--7------------L--5--|------------------------|
-------------------------|---------------------|--7---------------------|
-------------------------|---------------------|------------------------|


  W                   W                   W                   W                 
-------------------|-------------------|-------------------|-------------------|
-------------------|-------------------|-------------------|-------------------|
-------------------|-------------------|-------------------|-------------------|
-------------------|-------------------|-------------------|-------------------|
--7----------------|--7----------------|--7----------------|--7----------------|
-------------------|-------------------|-------------------|-------------------|


  W                   W                   H.           Q     
-------------------|-------------------|--------------------|
-------------------|-------------------|--------------------|
-------------------|-------------------|--------------------|
-------------------|-------------------|--------------------|
--7----------------|--7----------------|--7-----------------|
-------------------|-------------------|--------------------|



- Voice Melody:
             
                
Steve Walsh


          Intro                                                     
     S    W                   W                   W                 
E||----|-------------------|-------------------|-------------------|
B||----|-------------------|-------------------|-------------------|
G||----|-------------------|-------------------|-------------------|
D||----|-------------------|-------------------|-------------------|
A||----|-------------------|-------------------|-------------------|
E||----|-------------------|-------------------|-------------------|


  W                   W                   W                   W                 
-------------------|-------------------|-------------------|-------------------|
-------------------|-------------------|-------------------|-------------------|
-------------------|-------------------|-------------------|-------------------|
-------------------|-------------------|-------------------|-------------------|
-------------------|-------------------|-------------------|-------------------|
-------------------|-------------------|-------------------|-------------------|


                        Verso Riff                                
                  I     close      my          eyes               
  H        Q.     E     H          H           H        H         
---------------------|----------------------|--------------------|
---------------------|----------------------|--5-----------------|
------------------4--|--5----------7--------|--------------------|
---------------------|----------------------|--------------------|
---------------------|----------------------|--------------------|
---------------------|----------------------|--------------------|


  on ly for a mo  ment and the mo       ment's gone           
  E  E  E   S E.  E    E   S   S     E  E      Q    H         
----------------------------------|--------------------------|
--8--8--8---8-8---6----5----------|-----5------5-------------|
---------------------------7---7--|--L-----------------------|
----------------------------------|--------------------------|
----------------------------------|--------------------------|
----------------------------------|--------------------------|


  all      my          dreams               pass be fore my eyes a  cu ri o  
  H        H           H        H           E    S  E    E  E.   E  E  S  S  
--------------------|--------------------|----------------------------------|
--------------------|--5-----------------|--8----8--8----8--8----6--5-------|
--5--------7--------|--------------------|-----------------------------7--7-|
--------------------|--------------------|----------------------------------|
--------------------|--------------------|----------------------------------|
--------------------|--------------------|----------------------------------|


                         Coro                                       
     si ty                    Dust     in the    wind               
  E  E  Q    H           Q    H        E  E      H        H         
----------------------|-----------------------|--------------------|
-----5--5-------------|-----------------------|--------------------|
--L-------------------|-------7--------5--4---|--------------------|
----------------------|-----------------------|--7-----------------|
----------------------|-----------------------|--------------------|
----------------------|-----------------------|--------------------|


                                                     Verso Riff           
  all we are is dust in  the    wind                 Same       old       
  E   S  E.  E  E.   E.  E      H        H           H          H         
-----------------------------|--------------------|----------------------|
-----------------------------|--------------------|----------------------|
--7---7--7---7--7----5---4---|--------------------|--5----------7--------|
-----------------------------|--7-----------------|----------------------|
-----------------------------|--------------------|----------------------|
-----------------------------|--------------------|----------------------|


  song                 just a  drop of wa  ter in the end  
  H        H           E    E  E    S  E.  E   E  S   S    
--------------------|-------------------------------------|
--5-----------------|--8----8--8----8--8---6---5----------|
--------------------|-----------------------------7---7---|
--------------------|-------------------------------------|
--------------------|-------------------------------------|
--------------------|-------------------------------------|


     less sea              all      we          do                 
  E  E    Q    H           H        H           H        H         
------------------------|--------------------|--------------------|
-----5----5-------------|--------------------|--5-----------------|
--L---------------------|--5--------7--------|--------------------|
------------------------|--------------------|--------------------|
------------------------|--------------------|--------------------|
------------------------|--------------------|--------------------|


  crum bles to the ground though we re fuse       to see            
  E    S    E  E   E.     E      E  S  S       E  E  Q    H         
--------------------------------------------|----------------------|
--8----8----8--8---6------6------5----------|-----5--5-------------|
------------------------------------7--7----|--L-------------------|
--------------------------------------------|----------------------|
--------------------------------------------|----------------------|
--------------------------------------------|----------------------|


  Coro                                                                    
       Dust     in the    wind                all we are is dust in  the  
  Q    H        E  E      W                   E   S  E.  E  E.   E.  E    
-----------------------|-------------------|-----------------------------|
-----------------------|-------------------|-----------------------------|
-------7--------5--4---|-------------------|--7---7--7---7--7----5---4---|
-----------------------|--7----------------|-----------------------------|
-----------------------|-------------------|-----------------------------|
-----------------------|-------------------|-----------------------------|


  Interludio                                                      
  wi         ii ii ii          ii ii          ii ii ind           
  X          T. S  E  H        T  S. E     E  S  S  H.            
----------------------------------------|------------------------|
-------------5-----5--L-----------5--L--|--L--6--5---------------|
--7-------------7--------------7--------|-----------7------------|
----------------------------------------|------------------------|
----------------------------------------|------------------------|
----------------------------------------|------------------------|


  ooh          oh      oooh                                  
  H.           Q       W                   W                 
--------------------|--5----------------|-------------------|
--6------------8----|-------------------|-------------------|
--------------------|-------------------|-------------------|
--------------------|-------------------|-------------------|
--------------------|-------------------|-------------------|
--------------------|-------------------|-------------------|


  W                   W                   W                   W                 
-------------------|-------------------|-------------------|-------------------|
-------------------|-------------------|-------------------|-------------------|
-------------------|-------------------|-------------------|-------------------|
-------------------|-------------------|-------------------|-------------------|
-------------------|-------------------|-------------------|-------------------|
-------------------|-------------------|-------------------|-------------------|


  W                   W                   W                 
-------------------|-------------------|-------------------|
-------------------|-------------------|-------------------|
-------------------|-------------------|-------------------|
-------------------|-------------------|-------------------|
-------------------|-------------------|-------------------|
-------------------|-------------------|-------------------|


  Solo Robby Steinhardt                                          
  W                        W                   W                 
------------------------|-------------------|-------------------|
------------------------|-------------------|-------------------|
------------------------|-------------------|-------------------|
------------------------|-------------------|-------------------|
------------------------|-------------------|-------------------|
------------------------|-------------------|-------------------|


  W                   W                   W                   W                 
-------------------|-------------------|-------------------|-------------------|
-------------------|-------------------|-------------------|-------------------|
-------------------|-------------------|-------------------|-------------------|
-------------------|-------------------|-------------------|-------------------|
-------------------|-------------------|-------------------|-------------------|
-------------------|-------------------|-------------------|-------------------|


                          Verso Riff                                
                  Now,    don't      hang        on                 
  H        Q.     E       H          H           H        H         
-----------------------|----------------------|--------------------|
-----------------------|----------------------|--5-----------------|
------------------4----|--5----------7--------|--------------------|
-----------------------|----------------------|--------------------|
-----------------------|----------------------|--------------------|
-----------------------|----------------------|--------------------|


  no thing last for e   ver but the earth       and sky         it  
  E  E     E    S   E.  E   E   S   S        E  E   Q    Q.     E   
------------------------------------------|------------------------|
--8--8-----8----8---8---6---5-------------|-----5---5--------------|
--------------------------------7---7-----|--L------------------4--|
------------------------------------------|------------------------|
------------------------------------------|------------------------|
------------------------------------------|------------------------|


  slips    a           way               And  
  H        H           H        Q    E.  S    
--------------------|------------------------|
--------------------|--5-----------------8---|
--5--------7--------|------------------------|
--------------------|------------------------|
--------------------|------------------------|
--------------------|------------------------|


  all your mo ney won't a  no ther mi       nute buy            
  E   S    E  E   E.    E  E  S    S     E  E    Q    H         
--------------------------------------|------------------------|
--8---8----8--8---8-----6--5----------|-----5----5-------------|
------------------------------7----7--|--L---------------------|
--------------------------------------|------------------------|
--------------------------------------|------------------------|
--------------------------------------|------------------------|


  Coro                                                                     
       Dust     in the    wind                 all we are is dust in  the  
  Q    H        E  E      H        H           E   S  E.  E  E.   E.  E    
-----------------------|--------------------|-----------------------------|
-----------------------|--------------------|-----------------------------|
-------7--------5--4---|--------------------|--7---7--7---7--7----5---4---|
-----------------------|--7-----------------|-----------------------------|
-----------------------|--------------------|-----------------------------|
-----------------------|--------------------|-----------------------------|


  wind                      dust     in the    wind               
  H        H           Q    H        E  E      H        H         
--------------------|-----------------------|--------------------|
--------------------|-----------------------|--------------------|
--------------------|-------7--------5--4---|--------------------|
--7-----------------|-----------------------|--7-----------------|
--------------------|-----------------------|--------------------|
--------------------|-----------------------|--------------------|


                                   Outro                                 
  e  very thing is dust in  the    wind                                  
  E  S    E.    E  E.   E.  E      W                   W                 
--------------------------------|-------------------|-------------------|
--------------------------------|-------------------|-------------------|
--7--7----7-----7--7----5-------|-------------------|-------------------|
----------------------------5---|--7----------------|-------------------|
--------------------------------|-------------------|-------------------|
--------------------------------|-------------------|-------------------|



- Chorus:

                               
Robby Steinhardt (Coro)


                      Verso Riff                                
  W                   H          H           H        H         
-------------------|----------------------|--------------------|
-------------------|----------------------|--------------------|
-------------------|--5----------4--------|--------------------|
-------------------|----------------------|--7-----------------|
-------------------|----------------------|--------------------|
-------------------|----------------------|--------------------|


  E  E  E  S E.  E  E  S S    E  E  Q    H           H        H         
---------------------------|----------------------|--------------------|
---------------------------|----------------------|--------------------|
--4--4--4--4-4-------------|-----5--5-------------|--5--------4--------|
-----------------7--7--7-9-|--L-------------------|--------------------|
---------------------------|----------------------|--------------------|
---------------------------|----------------------|--------------------|


  H        H           E  S E  E  E.  E  E  S S    E  E  Q    H         
--------------------|---------------------------|----------------------|
--------------------|--0--0-0--0--0---0---------|----------------------|
--------------------|---------------------------|-----5--5-------------|
--7-----------------|--------------------7--7-7-|--L-------------------|
--------------------|---------------------------|----------------------|
--------------------|---------------------------|----------------------|


  Coro                                                            
  W                   W                   E  S E.  E  E.  E.  E   
-------------------|-------------------|-------------------------|
-------------------|-------------------|-------------------------|
-------------------|-------------------|--7--7-7---7--7---5---4--|
-------------------|-------------------|-------------------------|
-------------------|-------------------|-------------------------|
-------------------|-------------------|-------------------------|


  Interludio                                                  
  X          T. S E  H        T S. E     E  S S H.            
--------------------------------------|----------------------|
-------------5----5--L----------5--L--|--L--6-5--------------|
--7-------------7-------------7-------|---------7------------|
--------------------------------------|----------------------|
--------------------------------------|----------------------|
--------------------------------------|----------------------|

                                                              Coro              
  W                   W                   W                   W                 
-------------------|-------------------|-------------------|-------------------|
-------------------|-------------------|-------------------|-------------------|
-------------------|-------------------|-------------------|-------------------|
-------------------|-------------------|-------------------|-------------------|
-------------------|-------------------|-------------------|-------------------|
-------------------|-------------------|-------------------|-------------------|


  W                   W                   E  S E.  E  E.  E.  E   
-------------------|-------------------|-------------------------|
-------------------|-------------------|-------------------------|
-------------------|-------------------|--7--7-7---7--7---5---4--|
-------------------|-------------------|-------------------------|
-------------------|-------------------|-------------------------|
-------------------|-------------------|-------------------------|


  W                   E  S E.  E  E.  E.  E     W                 
-------------------|-------------------------|-------------------|
-------------------|-------------------------|-------------------|
-------------------|--7--7-7---7--7---5---4--|-------------------|
--7----------------|-------------------------|--7----------------|
-------------------|-------------------------|-------------------|
-------------------|-------------------------|-------------------|



Duration Legend
---------------
W - whole
H - half
Q - quarter
E - 8th
S - 16th
T - 32nd
X - 64th
. - note dotted
|-n-|  - n-tuplets


Tablature Legend
----------------
L - tied note
x - dead note
g - grace note
(n) - ghost note
> - accentuded note
NH - natural harmonic
AH - artificial harmonic
TH - tapped harmonic
SH - semi harmonic
PH - pitch harmonic
h - hammer on
p - pull off
b - bend
br - bendRelease
pb - preBend
pbr - preBendRelease
brb - bendReleaseBend
\n/ - tremolo bar dip
\n - tremolo bar dive
-/n - tremolo bar Release up
/n\ - tremolo bar inverted dip
/n - tremolo bar return
-\n - tremolo bar Release down
S - shift slide
s - legato slide
/ -  slide into from below or out of upwards
\ -  slide into from above or out of downwards
~ - vibrato
W - wide vibrato
tr - trill
TP - tremolo picking
T - tapping
S - slap
P - pop
< - fade in
^ - brush up
v - brush down
Suggest correction
Creating personal tab
Creating personal tab
You can edit any tab online and save it as your Personal.

You can edit, replace or remove any tab part or add personal notes – all changes will be seen only by you.

Personal tabs can be accessed anytime from any device, even offline.
Learn more »
comments
print report bad tab
guest
You may want to rate the tab now too:
select rating
Wanna post a correction for this tab? Suggest correction