Oops, an error
Loading. Please wait.

Lightnings Hand bass

version 1
version 1

Whole song

Interactive

by Kansas
70 views 1 this week
no commentswrite comment
1 2 3 4 5
2 more votes to show rating
add to favorites
×
Save as Personal and add changes to this tab that will be seen only by you. Learn more ›
×
You can save this tab as Personal to edit and correct it or add notes. All changes will be seen only by you. Learn more »
launch autoscroll
font size
0
reset
guitar tuner
edit
Autoscroll
slow
fast
+/-
esc
set tempo
stop
Author
Difficulty
*^*^* = triplet

[Intro]
     
       *^*^* *^*^*                             *^*^* *^*^*
G|---------------------|-----------------|---------------------|-----------------|  x2
D|-----7-5---7-5-------|-----------------|-----7-5---7-5-------|-----------------|
A|-0-------7-----7-5-3-|-(3)---------3---|-0-------7-----7-5-3-|-(3)---------3---|
E|---------------------|---------3-------|---------------------|---------3-------|


[Verse]

                                                                     *^*^*
G|-----------------|-----------------|-----------------|-------------------|
D|-----------------|-----------------|-----------------|-------------------|
A|-0r--------------|-----------------|-----------------|---------------3-5-|
E|-----------------|-3r--------------|-1r--------------|-3r----------0-----|

                                                                     *^*^*
G|-----------------|-----------------|-----------------|-------------------|
D|-----------------|-----------------|-----------------|-------------------|
A|-0r--------------|-----------------|-----------------|---------------0-3-|
E|-----5\----------|-3r--3r----------|-1r--1r----------|-3r--3r----1-3-----|

                                                                     *^*^*
G|-----------------|-----------------|-----7-7---------|-----7-7-----------|
D|-----------------|-----------------|-----------------|-------------------|
A|-5---5---5---5--3|-5---5---5---5---|-5---------------|-5-------------0-3-|
E|-----------------|-----------------|-----------------|-----------1-3-----|

G|-----------------|-----------------|-----7-7---------|-----7-7-----------|
D|-----------------|-----------------|-----------------|-------------------|
A|-5---5---5---5--3|-5---5---5---5---|-5---------------|-5-----------------|
E|-----------------|-----------------|-----------------|-------------------|

                                                         *^*^*         *^*^*
G|-----------------|-----------------|-----------------|-----7---------5-----|
D|-----------------|-----------------|-----------------|-0-7---0-7-0-7---7-5-|
A|-5---------------|-1---------------|-3---------------|---------------------|
E|-----------------|-----------------|-----------------|---------------------|

G|-----------------|-----------------|
D|-----------------|-----------------|
A|-----------------|-----------------|
E|-5\--------------|-----------------|


[Verse 2]

                  *^*^*                  *^*^*                  *^*^*                  *^*^*
G|----------------------|----------------------|----------------------|----------------------|  x2
D|--------------------3-|-5--5-5--5-5--5-5-3---|-3--3-3--3-3--3-3-2-0-|-5--5-5--5-5--5-3-----|
A|-0--0-0--0-0--0-3-5---|--------------------5-|----------------------|------------------5-3-|
E|----------------------|----------------------|----------------------|----------------------|

                                                                     *^*^*
G|-----------------|-----------------|-----7-7---------|-----7-7-----------|
D|-----------------|-----------------|-----------------|-----------5-3-----|
A|-5---5---5---5--3|-5---5---5---5---|-5---------------|-5-------------5-3-|
E|-----------------|-----------------|-----------------|-------------------|

G|-----------------|-----------------|-----7-7---------|-----7-7-----------|
D|-----------------|-----------------|-----------------|-------------------|
A|-5---5---5---5--3|-5---5---5---5---|-5---------------|-5-----------------|
E|-----------------|-----------------|-----------------|-------------------|

                                                         *^*^*         *^*^*
G|-----------------|-----------------|-----------------|-----7---------5-----|
D|-----------------|-----------------|-----------------|-0-7---0-7-0-7---7-5-|
A|-5---------------|-1---------------|-3---------------|---------------------|
E|-----------------|-----------------|-----------------|---------------------|

G|-----------------|
D|-----------------|
A|-----------------|
E|-5\--------------|


[Solo pt 1]

G|---------------------|---------------------|---------------------|---------------------| \
D|---------------------|---------------------|---------------------|---------------------|  |
A|-0--0-0--0-0--0-0--0-|-0--0-0--0-0--0-0--0-|-0--0-0--0-0--0-0--0-|-2--2-2--2-2--2-2--2-|  |
E|---------------------|---------------------|---------------------|---------------------|  |
                                                                                             > x2 
G|---------------------|---------------------|---------------------|---------------------|  |
D|---------------------|---------------------|---------------------|---------------------|  |
A|-3--3-3--3-3--3-3--3-|-3--3-3--3-3--3-3--3-|-3--3-3--3-5--5-5--5-|-7r------------------|  |
E|---------------------|---------------------|---------------------|-------------------5\| /

   *^*^* *^*^* *^*^* *^*^*
G|-------------------------|
D|-------------------------|
A|-5-7-5-7-5-7-3-5-3-2-----|
E|---------------------5-3-|


[Solo pt 2]

G|---------------------|---------------------|---------------------|---------------------|
D|---------------------|---------------------|----------------5----|-----------5---------|
A|-0--0-0--0-0--0-0--0-|-0--0-0--0-3--0-5----|---------------------|---------------------|
E|---------------------|---------------------|-3--3-3--3-3--3------|-3--3-3--3----3-3--3-|

G|---------------------|---------------------|---------------------|---------------------|
D|---------------------|-----------3---------|---------------------|---------------------|
A|---------------------|----------------3----|-5--5-5--5-5--5-5--5-|-5--5-5--5-5--5-5--5-|
E|-1--1-1--1-1--1-1--1-|-1--1-1--1-----------|---------------------|---------------------|
        
                                       *^*^*   *^*^*     *^*^*       *^*^*     *^*^*
G|---------------------|---------------------|---------------------|---------------------|
D|---------------------|---------------------|-------2---------2---|-------2---------2---|
A|---------------------|---------------0-3-5-|-0-0-0-----0-0-0-----|-0-0-0-----0-0-0-----|
E|-3--3-3--3-3--3-3--3-|-3--3-3--3-3---------|---------------------|---------------------|

G|---------------------|---------------------|---------------------|---------------------|
D|---------------------|---------------------|---------------------|---------------------|
A|-3--3-3--3-3--3-3--3-|-3--3-3--3-3--3-3----|-5--5-5--5-5--5-5--5-|-7--7-7--7-7--7-7----|
E|---------------------|---------------------|---------------------|---------------------|

   *^*^* *^*^* *^*^* *^*^*
G|-------------------------|-7---------------|---------------------|
D|-7-5-7-----7-7-5-7-----5-|-----------------|---------------------|
A|-------7-5---------5-7---|-----------------|---------------------|
E|-------------------------|-----------------|---------------------|

   *^*^* *^*^* *^*^* *^*^*
G|-------------------------|-----------------|---------------------|
D|-7-5-7-----7-7-5-7-----5-|-8---------------|---------------------|
A|-------7-5---------5-7---|-----------------|---------------------|
E|-------------------------|-----------------|---------------------|

   *^*^* *^*^* *^*^* *^*^*
G|-------------------------|-7---------------|---------------------|
D|-7-5-7-----7-7-5-7-----5-|-----------------|---------------------|
A|-------7-5---------5-7---|-----------------|---------------------|
E|-------------------------|-----------------|---------------------|

   *^*^* *^*^* *^*^* *^*^*
G|-------------------------|-----------------|---------------------|
D|-7-5-7-----7-7-5-7-----5-|-8---------------|---------------------|
A|-------7-5---------5-7---|-----------------|---------------------|
E|-------------------------|-----------------|---------------------|

G|-----------------|-----------------|
D|-----------------|-----------------|
A|-0r--------------|---------3r------|
E|---------3r------|-1r--------------|

                                                                               * ^*^ *  
G|---------------------|---------------------|---------------------|/14---14---14-14-14-14---|
D|---------------------|---------------------|---------------------|-------------------------|
A|-5--5-5--5-0--0-0--0-|---------------------|---------------------|-------------------------|
E|---------------------|-1--1-1--1-3--3-3--3-|---------------------|-------------------------|


[Verse 3]

                  *^*^*                  *^*^*                  *^*^*                  *^*^*
G|----------------------|----------------------|----------------------|----------------------|  x2
D|--------------------3-|-5--5-5--5-5--5-5-3---|-3--3-3--3-3--3-3-2-0-|-5--5-5--5-5--5-3-----|
A|-0--0-0--0-0--0-3-5---|--------------------5-|----------------------|------------------5-3-|
E|----------------------|----------------------|----------------------|----------------------|

                                                                     *^*^*
G|-----------------|-----------------|-----7-7---------|-----7-7-----------|
D|-----------------|-----------------|-----------------|-----------5-3-----|
A|-5---5---5---5--3|-5---5---5---5---|-5---------------|-5-------------5-3-|
E|-----------------|-----------------|-----------------|-------------------|

G|-----------------|-----------------|-----7-7---------|-----7-7-----------|
D|-----------------|-----------------|-----------------|-------------------|
A|-5---5---5---5--3|-5---5---5---5---|-5---------------|-5-----------------|
E|-----------------|-----------------|-----------------|-------------------|

G|-----------------|-----------------|-----------------|
D|-----------------|-----------------|-----------------|
A|-5---------------|-1---------------|-3---------------|
E|-----------------|-----------------|-----------------|

   *^*^* *^*^* *^*^* *^*^*   *^*^* *^*^* *^*^* *^*^*   *^*^* *^*^* *^*^* *^*^*   *^*^* *^*^* *^*^* *^*^*
G|-------------------------|-------------------------|-------------------------|-------------------------|
D|-------------------------|-------------------------|-5-5-5-5-5-5-5-5-5-5-5-5-|-7-7-7-7-7-7-7-7-7-7-7-7-|
A|-5-5-5-5-5-5-5-5-5-5-5-5-|-7-7-7-7-7-7-7-7-7-7-7-7-|-------------------------|-------------------------|
E|-------------------------|-------------------------|-------------------------|-------------------------|

   *^*^* *^*^* *^*^* *^*^*   *^*^* *^*^* *^*^* *^*^*   *^*^* *^*^* *^*^* 
G|-5-5-5-5-5-5-5-5-5-5-5-5-|-7-7-7-7-7-7-7-7-7-7-7-7-|-9-9-9-9-9-9-9-9-9-9-----|
D|-------------------------|-------------------------|-------------------------|
A|-------------------------|-------------------------|-------------------------|
E|-------------------------|-------------------------|-------------------------|


[Outro]

   *^*^* *^*^* *^*^* *^*^*   *^*^*       *^*^*         *^*^* *^*^* *^*^* *^*^*   *^*^*       *^*^*      
G|-------------------------|-------------------------|-------------------------|-------------------------|
D|-7-5---5---7-7-5---5-----|-------------------------|-7-5---5---7-7-5---5-----|-------------------------|
A|-----7---7-------7---7-5-|-------3-----------5-----|-----7---7-------7---7-5-|-------3-----------5--5--|
E|-------------------------|-5-3-0-------5-3-0-------|-------------------------|-5-3-0-------5-3-0-------|

G|-----------------|-----------------|-----------------|-----------------|
D|-----------------|-----------------|-----------------|-----------------|
A|-5--5--5--5--5---|-(5)-----5\--0---|-0-------0---0---|-----0---0-------|
E|-----------------|-----------------|-----------------|-----------------|

G|-----------------|-----------------|-----------------|-----------------|
D|-----------------|-----------------|-----------------|-----------------|
A|-5---5-------5---|-5-------5---0---|-0-------0---0---|-----0---0-------|
E|-----------------|-----------------|-----------------|-----------------|

G|-----------------|-----------------|-----------------|-----------------|
D|-----------------|-----------------|-----2-------2---|-----------------|
A|-3--3--3--5------|-----------------|-----------------|-----5-------3---|
E|-----------------|-3--3--3--5------|-0-------0-------|-0-------0-------|

           *^*^* *^*^*           *^*^* *^*^*           *^*^* *^*^*           *^*^* *^*^*
G|---------------------|---------------------|---------------------|---------------------|
D|-----------------0-2-|-----------------0-2-|-----------------0-2-|-----------------0-2-|
A|-0--0------0-2-3-----|-0--0------0-2-3-----|-0--0------0-2-3-----|-0--0------0-2-3-----|
E|---------3-----------|---------3-----------|---------3-----------|---------3-----------|

G|-----------------|-----------------|-----------------|-----------------|
D|-----------------|-----------------|-----------------|-----------------|
A|-0---0-------0---|-0-------0---0---|-----5---5-------|-5---5-------5---|
E|-----------------|-----------------|-----------------|-----------------|

G|-----------------|-----------------|-----------------|-----------------|
D|-----------------|-----------------|-----------------|-----------------|
A|-0---0-------0---|-0-------0---0---|-----3--3--3--5--|-----------------|
E|-----------------|-----------------|-----------------|-----3--3--3--5--|

G|-----------------|-----------------|-----------------|-----------------|
D|---------2-------|-2---------------|-----------------|-----------------|
A|-----------------|---------5-------|-3---0--0--0--0--|-----0--0--0--0--|
E|-----0-------0---|-----0-------0---|-----------------|-----------------|

G|-----------------|-----------------|-----------------|-----------------|
D|-----------------|-----------------|-----------------|-----------------|
A|-----7--5-----4--|-------0---------|-(0)-------------|-(0)-------------|
E|-----------7-----|-5--2------------|-----------------|---------------5\|


Hope you enjoy the tab! Brilliant song.
Anyways, let me know if you have corrections.


************************************

| (n) Ghost note
| r   Release
| \   Slide down

************************************
Suggest correction
Creating personal tab
Creating personal tab
You can edit any tab online and save it as your Personal.

You can edit, replace or remove any tab part or add personal notes – all changes will be seen only by you.

Personal tabs can be accessed anytime from any device, even offline.
Learn more »
Give kudos to tab author, rate the tab!
1 2 3 4 5
comments
print report bad tab
guest
You may want to rate the tab now too:
select rating
Wanna post a correction for this tab? Suggest correction