Oops, an error
Loading. Please wait.

All Falls Down Bass Tab

version 1
version 1

Whole song

23,950 views 27 this week
3 commentsread comments
1 2 3 4 5
x 8
add to favorites
launch autoscroll
font size
0
reset
guitar tuner
×
Best way to learn
"All Falls Down"
Autoscroll
slow
fast
+/-
esc
set tempo
stop
Good simple groovy bass line!!!

Standard tuning

Same riff all the way through the song!!!

G-----------------------------------13h15---------------|
D---------------------------------------------11h13-----|
A-13--13-12-11--11-11--11--11h12h13--------13-------11--|
E-------------------------------------------------------|

The tricky part

G----------------------15h16p15-------------------|
D------------13/16h18-----------16p15p13----------|
A--11/13h14------------------------------13-11-13-|
E-------------------------------------------------|

Thats pretty much it, that quick run down might not be exact but its not far off.

Its quite quick so hard to hear the notes.

Enjoy. 
Suggest correction
comments
print report bad tab
3 comments total.
+2 reply
kp_bass 52 Jan 17, 2008 08:10 AM

that's awesome mate 5 stars
run down is hardly heard anyway i think its in G# still

0 reply
Beffen 53 Nov 23, 2010 11:36 AM

This is accurate. Great job :-)

0 reply
vince2398 57 Apr 19, 2015 11:41 AM

G|--------------------------------------13h15----------------------|
D|-----------------------------------------------11h13-------------|
A|13---13-12-11-----11-11-11-11-12-13---------13-------11----------|
E|-----------------------------------------------------------------|

G|------------13-15-15h16-15-13------------------------------------|
D|---------13-------------------13---------------------------------|
A|11-13-14-------------------------14-13-11------------------------|
E|-----------------------------------------------------------------|

guest
You may want to rate the tab now too:
select rating
Wanna post a correction for this tab? Suggest correction