Oops, an error
Loading. Please wait.

All Of The Lights Bass Tab

18,735 views 9 this week
1 commentread comment
1 2 3 4 5
excellent!
x 7
add to favorites
launch autoscroll
font size
0
reset
guitar tuner
Autoscroll
slow
fast
+/-
esc
set tempo
stop
Help us to improve Ultimate-Guitar.com Take our survey!
×
Difficulty
novice
-------------------------------------------------------------------------------
			     ALL OF THE LIGHTS - KANYE WEST et. al
-------------------------------------------------------------------------------

Tabbed By : Charles
e-mail: grunge.is.dead@hotmail.com

Tuning: Standard

AS IN ORIGINAL RECORDING
G|-----------------------------------------------------------------|
D|-----------------------------6---4---4-4-4-4-3---1---1-1-1-1-----|
A|-1---1-1-1-1-1---1---4-4-4-4---------------------------------4---|
E|-----------------------------------------------------------------|

Repeat ad nauseum.

Chords are as follows:
Bbm		Gbmaj	Ebm

===============================================================================

HALF-STEP-DOWN:
G|-----------------------------------------------------------------|
D|-----------------------------5---3---3-3-3-3-2---0---0-0-0-0-----|
A|-0---0-0-0-0-0---0---3-3-3-3---------------------------------3---|
E|-----------------------------------------------------------------|

Recommended for playing in full band setup, chords are as follows:
Am F Dm
listen to the song for placement, and everything should fall into place.

-C
Suggest correction
What's this?
You can suggest a correction to this tab. Community and Mods will review your correction and vote to approve or reject it.
comments
print report bad tab
1 comment total.
0 reply
UmbraMachina 280 wrote on March 6 2014, 05:43 pm

After playing this, I found that it matches the song better if you make the last A# before the C# a C, like this:

G|-----------------------------|
D|-----------------------------|
A|-1---1-1-1-1-1---3---4-4-4-4-|
E|-----------------------------|

Other than that, this is perfect

guest
You may want to rate the tab now too:
select rating
Please do not post tabs as comments. Select "correction" instead!