Oops, an error
Loading. Please wait.

All Of The Lights Tab

version 2
version 2

Whole song

16,731 views 18 this week
3 commentsread comments
1 2 3 4 5
accurate
x 5
add to favorites
launch autoscroll
font size
0
reset
how to read this tab
guitar tuner
Tab Pro tools
  • play this tab
  • loop segment
  • change instrument
  • show fretboard
  • metronome
Autoscroll
slow
fast
+/-
esc
set tempo
stop
Contributor
Difficulty
intermediate
Main riff of all of the lights, listen to the song for the correct timing and such
(x=muted string)

e ---------------------------4-2--2-2-2-2------------------------------|
B --------------2-2--2-2-2-2-x-x--x-x-x-x---6-4--4-4-4-4---------------|
G -3--3-3-3-3---3-3--3-3-3-3-3-3--3-3-3-3---3-1--1-1-1-1---------------|
D----------------------------------------------------------------------|
A----------------------------------------------------------------------|
E----------------------------------------------------------------------|


Have another instrument play this against that

G-------------|
D-------------|
A-1-----------|
E-----1-2-----|

Hope this helps, if your soloing use the B flat pentatonic scale
comments
print report bad tab
3 comments total.
+1 reply
placelessspace wrote on March 19 2014, 04:40 pm

the whole lead melody:

E||--------------------------|
B||--------------------------|
G||--------------1-----------|
D||-----------------4--3--1--|
A||--1--------1--------------|
E||-----1--2-----------------|

0 reply
placelessspace wrote on March 19 2014, 04:41 pm, edited at 04:42 pm

the whole lead melody:

0 reply
speedofsound87 wrote on January 6 2016, 11:21 pm

This tab is okay - but can someone please help me find the full accurate tab for this song

some tabs for this song are okay on this site , but I can't find one that has the guitar tab for the pre chorus or the songs breakdown

not even songster has it ,

so if anyone could hekp me find it , it would be much appreciated

cheers

I want to post or [tab]
guest
You may want to rate the tab now too:
select rating
Please do not post tabs as comments. Select "correction" instead!