Oops, an error
Loading. Please wait.

Black Skinhead Tab

version 1
version 1

Whole song

22,043 views 117 this week
2 commentsread comments
1 2 3 4 5
accurate
x 13
add to favorites
launch autoscroll
font size
0
reset
how to read this tab
guitar tuner
Autoscroll
slow
fast
+/-
esc
set tempo
stop
Help us to improve Ultimate-Guitar.com Take our survey!
×
Difficulty
novice
So, here's my take on Black Skinhead.  It's pretty close to the synth in the song.

This is just the intro, but really that's all there is to it.  This is the basic 
structure and anything else in the song is based on this.

You can either play it with single notes or with power chords, both of which are included.

Enjoy!


e|--------------------------------------------------|
B|--------------------------------------------------|
G|--------------------------------------------------|
D|--------------------------------------------------|
A|--------------------------------------------------|
E|-5-5-8-10-3-3-6-5-1-------------------------------|

e|--------------------------------------------------|
B|--------------------------------------------------|
G|--------------------------------------------------|
D|-7-7-10-12-5-5-8-7-3------------------------------|
A|-7-7-10-12-5-5-8-7-3------------------------------|
E|-5-5-8--10-3-3-6-5-1------------------------------|
Suggest correction
comments
print report bad tab
2 comments total.
+1 reply
DJRitzel 10 wrote on July 23 2013, 06:37 am

Awesome thanks a lot, I really wanted learn how to play this and it's a really good song too.

+1 reply
FittedSuit 10 wrote on December 21 2014, 02:15 pm

wrong key. working from the recording, it should be


e|---------------------------------------------------|
B|---------------------------------------------------|
G|---------------------------------------------------|
D|---------6--8/6------------------------------------|
A|---8--8----------6--6---9--8-----------------------|
E|--------------------------------6------------------|

guest
You may want to rate the tab now too:
select rating
Wanna post a correction for this tab? Suggest correction