Oops, an error
Loading. Please wait.

Devil In A New Dress bass

3,887 views 15 this week
1 commentread comment
1 2 3 4 5
x 3
add to favorites
×
Save as Personal and add changes to this tab that will be seen only by you. Learn more ›
×
You can save this tab as Personal to edit and correct it or add notes. All changes will be seen only by you. Learn more »
launch autoscroll
font size
0
reset
guitar tuner
edit
Autoscroll
slow
fast
+/-
esc
set tempo
stop
Author
The entire song is basically these two parts played back and forth.

(1)
G|---------------------------------------------------------------------------|
D|----------------11----9----6---------------------11---9-6------------------|
A|---7----------------------------7---------------------------7----6---------|
E|---------------------------------------------------------------------------|


------------------------------------------------------|
---------------------13---13---------13--15--16-------|
-----13--13--13-----------------13--------------------|
------------------------------------------------------|

(2)
G|---------------------------------------------------------------------------|
D|----------------11----9----6---------------------11---9-6------------------|
A|---7----------------------------7------------------------------7----6------|
E|---------------------------------------------------------------------------|

-------------------------------------------------------|
-----------------13------------------------------------|
----13--13--13----------------1-1--1---2--2--6-6--6----|
------------------------4--4---------------------------|

{Here is an alternate/easier way of playing the ending of part (1). I prefer playing it
at the 13th fret because it gives off a thicker, bassier sound, but this other way works
just fine}

{G|-------------8---8--------8--10--11---|}
{D|---8--8--8-------------8--------------|}
{A|--------------------------------------|}
{E|--------------------------------------|}


{Also, after part (1) is played through for the first time, I like to add in the sixth
fret on the A string every other time it is played throughout the song. I don’t think
that note on the sixth is played in the actual recording, I just feel like every other 
time it is played it keeps the groove, ya know?}

(1)
{G|--------------------------------------------------------}
{D|---------------------------11----9----6-----------------}
{A|-----(6)--------7----------------------------7----------}
{E|--------------------------------------------------------}
Suggest correction
Creating personal tab
Creating personal tab
You can edit any tab online and save it as your Personal.

You can edit, replace or remove any tab part or add personal notes – all changes will be seen only by you.

Personal tabs can be accessed anytime from any device, even offline.
Learn more »
Give kudos to tab author, rate the tab!
1 2 3 4 5
comments
print report bad tab
1 comment total.
0 reply
Tydrain 10 Feb 07, 2014 05:44 AM

Thank you I always wanted to play this song on the bass

guest
You may want to rate the tab now too:
select rating
Wanna post a correction for this tab? Suggest correction