Oops, an error
Loading. Please wait.

Fade Bass Tab

976 views 60 this week
no commentswrite comment
1 2 3 4 5
2 more votes to show rating
add to favorites
launch autoscroll
font size
0
reset
guitar tuner
Autoscroll
slow
fast
+/-
esc
set tempo
stop
Help us to improve Ultimate-Guitar.com Take our survey!
×
Author
Difficulty
Tuning
novice
D A D G B E
About this tab version
First full bass tab for the song Fade by Kanye West. Was this info helpful? Yes No
-------------------------------------------------------------------------------
                              FADE - Kanye West
                              The Life Of Pablo
-------------------------------------------------------------------------------

Tabbed By : matt.hilley

Tuning: Drop D

Bass comes in at 0:30
G|---------------------------------------|
D|--------------------------0---h3-------|
A|--------------0----1---h3--------------|
D|----0---h3-----------------------------|  x14

at 1:01
G|-----------------------|
D|-----------------------|
A|--------------0----1---|
D|----0---h3-------------| x1

Pause at 1:02

G|---------------------------------------|
D|--------------------------0---h3-------|
A|--------------0----1---h3--------------|
D|----0---h3-----------------------------|  x7

at 1:21
G|-----------------------|
D|-----------------------|
A|--------------0----1---|
D|----0---h3-------------| x1

Pause at 1:22

G|---------------------------------------|
D|--------------------------0---h3-------|
A|--------------0----1---h3--------------|
D|----0---h3-----------------------------|  x7

Pause at 1:38

G|---------------------------------------|
D|--------------------------0---h3-------|
A|--------------0----1---h3--------------|
D|----0---h3-----------------------------|  x7

at 1:21
G|-----------------------|
D|-----------------------|
A|--------------0----1---|
D|----0---h3-------------| x1


Pause at 1:58 until 2:38

G|---------------------------------------|
D|--------------------------0---h3-------|
A|--------------0----1---h3--------------|
D|----0---h3-----------------------------|  x13
 




| /  slide up
| \  slide down
| h  hammer-on
| p  pull-off
| ~  vibrato
| +  harmonic
| x  Mute note
===============================================================================
Suggest correction
Give kudos to tab author, rate the tab!
1 2 3 4 5
comments
print report bad tab
guest
You may want to rate the tab now too:
select rating
Wanna post a correction for this tab? Suggest correction