Oops, an error
Loading. Please wait.

Hell Of A Life Bass Tab

version 1
version 1

Whole song

2,364 views 6 this week
1 commentread comment
1 2 3 4 5
please rate
add to favorites
launch autoscroll
font size
0
reset
guitar tuner
Autoscroll
slow
fast
+/-
esc
set tempo
stop
Help us to improve Ultimate-Guitar.com Take our survey!
×
Author
Difficulty
get some fuzz and an octave down 

G|---------------------------------------------|
D|---------------------------------------------| 
A|--------------567----------------------------| x2 
E|-7-7-7-5-77-7----567-------------------------|

G|---------------------------------------------|
D|---------------------------------------------| 
A|-------------567-----------------------------| x1
E|-3-3-3-3-3-3----567--------------------------|

repeat etcetera 
Suggest correction
Give kudos to tab author, rate the tab!
1 2 3 4 5
comments
print report bad tab
1 comment total.
0 reply
forstringwonder 51 wrote on November 29 2010, 03:49 pm

correction:

G|---------------------------------------------|
D|--------------567----------------------------|
A|-----------------567-------------------------| x2
E|-7-7-7-5-77-7-----------------------------|

G|---------------------------------------------|
D|-------------567-----------------------------|
A|----------------567--------------------------| x1
E|-3-3-3-3-3-3---------------------------------|

guest
You may want to rate the tab now too:
select rating
Wanna post a correction for this tab? Suggest correction