Oops, an error
Loading. Please wait.

Homecoming Tab

version 2
version 2

Intro

Whole song

Interactive

5,780 views 1 this week
no commentswrite comment
1 2 3 4 5
2 more votes to show rating
add to favorites
launch autoscroll
font size
0
reset
how to read this tab
guitar tuner
Autoscroll
slow
fast
+/-
esc
set tempo
stop
Help us to improve Ultimate-Guitar.com Take our survey!
×
Difficulty
novice
this is repeated pretty much through the whole song.

e|----------------------------------------7-7-7-8-7-3-5-5---0-2-2h3p2---------|
B|-----------------------------5-7-3-5-5------------------------------3-5-----|
G|----------------------------------------------------------------------------|
D|---7-7---7-7---7-7---7-7---7------------------------------------------------|
A|-0-----0-----0-----0--------------------------------------------------------|
E|----------------------------------------------------------------------------|
   |--------------------------|                            |------------------|
    this is the intro, play                          play end twice each time
    once only

Alternative endings:
e|-0-2-2h3p2-3-5-    e|---------------|
B|-0-3-------3-5-    B|-5-7-7h8p7-3-5-|
G|---2----------- or G|---------------|
D|---------------    D|---------------|
A|---------------    A|---------------|
E|---------------    E|---------------|

enjoy!
Suggest correction
Give kudos to tab author, rate the tab!
1 2 3 4 5
comments
print report bad tab
guest
You may want to rate the tab now too:
select rating
Wanna post a correction for this tab? Suggest correction