Oops, an error
Loading. Please wait.

No Church In The Wild Tab

version 1
version 1

Whole song

Interactive

47,588 views 84 this week
2 commentsread comments
1 2 3 4 5
accurate
x 18
add to favorites
launch autoscroll
font size
0
reset
how to read this tab
guitar tuner
Tab Pro tools
  • play this tab
  • loop segment
  • change instrument
  • show fretboard
  • metronome
×
Best way to learn
"No Church In The Wild"
Autoscroll
slow
fast
+/-
esc
set tempo
stop
Difficulty
Tuning
novice
D# G# C# F# A# D#
Kanye West & Jay Z (Ft. Frank Ocean) - No Church in the Wild


Intro (Main Riff)


e------------------------------------------------------|
B------------------------------------------------------|
G------------------------------------------------------|
D----------------------------------------0-------------|
A------------5p2-------3-2-0----------------2----------|
E--0--h3p-0-------3p0----------0--3--0-----------------|



e------------------------------------------------------|
B------------------------------------------------------|
G------------------------------------------------------|
D----------------------------------------0-------------|
A------------5p2-------3-2-0----------------2----------|
E--0--h3p-0-------3p0----------0--3--0-----------------|


Please rate 5 stars so other people can learn the riff properly - Cheers :)


-JK
comments
print report bad tab
2 comments total.
0 reply
srobles97 wrote on April 18 2013, 09:34 pm

Sound accurate but you forgot to change the tuning in the tab to half step down (D#/G#/C#/F#/A#/D#)

0 reply
danpeskin wrote on October 13 2013, 07:45 pm

Notes are correct, but the practical way to play it (and probably the way they play it) is to interchange some of those notes on the 5th and 6th string.

The riff is much smoother to play if you do:

G#--------5p2-----3p2---------5p2
D#--0-3p0-----3p0-----5p0-3p0

I want to post or [tab]
guest
You may want to rate the tab now too:
select rating
Please do not post tabs as comments. Select "correction" instead!