Oops, an error
Loading. Please wait.

Stronger Tab

version 2
version 2

Interactive

16,468 views 9 this week
no commentswrite comment
1 2 3 4 5
accurate
x 3
add to favorites
launch autoscroll
font size
0
reset
how to read this tab
guitar tuner
Autoscroll
slow
fast
+/-
esc
set tempo
stop
Help us to improve Ultimate-Guitar.com Take our survey!
×
Author
-------------------------------------------------------------------------------
                             Stronger - Kanye West
-------------------------------------------------------------------------------
Tabbed by:Zviper
Email: Zviper.leo@gmail.com

Tuning:EADGBe

e|--------------------------------------------------------------------------------|
B|--------------11----------------------------------------------------------------|
G|-----------11----11-------------------11s10s11----------11p10h11----------------|
D|--------13----------13-------------11---------------8----------------9----8-----|
A|-----9-----------------9--------11----------------6----------------9----8-------|
E|--11---------------------11---9-----------------8----------------7----6---------|

                                                                  | updated |


Well it just keeps on repeating through out the song. there are some other parts
that i
tabbed but if you base it on this you can easily figure it out. comments question
concerns...zviper.leo@gmail.com.

Also the backing part of this song was originally done by Daft Punk.

| /  slide up
| \  slide down
| h  hammer-on
| p  pull-off
| ~  vibrato
| +  harmonic
| x  Mute note
===============================================================================
Suggest correction
Give kudos to tab author, rate the tab!
1 2 3 4 5
comments
print report bad tab
guest
You may want to rate the tab now too:
select rating
Please do not post tabs as comments. Select "correction" instead!