Oops, an error
Loading. Please wait.

Stronger Tab

version 4
version 4

Interactive

9,875 views 3 this week
2 commentsread comments
1 2 3 4 5
please rate
add to favorites
launch autoscroll
font size
0
reset
how to read this tab
guitar tuner
Autoscroll
slow
fast
+/-
esc
set tempo
stop
Help us to improve Ultimate-Guitar.com Take our survey!
×
Difficulty
intermediate
Stronger Tab by Kanye West, www.Ultimate-Guitar.Com
This tab 100% right, all the others are way off!

tune half step down

Intro:
e |-----------------------------------------------|
B |-----------------------------------------------|
G |-------------------3--1-1----------------------|
D |-1-1-1-1--4-4-4-4----------4-4--1--------------|
A |-----------------------------------------------|
Eb|------------------------------------3-0--------|

Main Riff:
e |---------------------------------------------------------------------------------------|
B |----------------------------------------------------------9----------------------------|
G |----------------------------------------------------11------11-8-----------------------|
D |------------8------------------------------------------10---------10-------------------|
A |--6-9--6-9----9--6-9----------9-----11--9-8-9------------------------------6-9---------|
Eb|------------------------10-10----10-------------9-9--------------------8-8-----0-0-0-0-|
                                                                                            
e |--------------------------------------------------------------------------------------|
B |----------------------------------------------------------9---------------------------|
G |----------------------------------------------------11------11-8----------------------|
D |------------8------------------------------------------10---------10------------------|
A |--6-9--6-9----9--6-9---------9-----11--9-8-9------------------------------------------|
Eb|------------------------9-9-----9-------------8-8---------------------7---------------|

Chords played:
strum each chord just once
     Em    D      A      C     B
e |--6------------4-------------------|
B |--7-----6------4------4-----3------|
G |--8-----6------5------4-----3------|
D |--8-----6------6------4-----3------|
A |--6-----4------6------2-----1------|
Eb|-----------------------------------|
Suggest correction
Give kudos to tab author, rate the tab!
1 2 3 4 5
comments
print report bad tab
2 comments total.
0 reply
Oneill9293 61 wrote on December 20 2007, 11:11 am

The chords at the bottom are wrong. You have put a D as being:
---
6-
6-
6-
4-
---

This is in fact a C# (I
think it's add9, I'm not sure though)

and the chords are just wrong. It's not even close to 100% right. Ugh.

0 reply
laky68 30 wrote on January 1 2008, 11:20 pm

this is fully a rip off of the last one. look, dude copied "tune half step down" but the only string he has tuned down
is E. and yeah your chords are messed up.

guest
You may want to rate the tab now too:
select rating
Wanna post a correction for this tab? Suggest correction