Oops, an error
Loading. Please wait.

Stronger Tab

version 6
version 6

Interactive

9,615 views 1 this week
no commentswrite comment
1 2 3 4 5
please rate
add to favorites
launch autoscroll
font size
0
reset
how to read this tab
guitar tuner
Tab Pro tools
  • play this tab
  • loop segment
  • change instrument
  • show fretboard
  • metronome
×
Best way to learn
"Stronger"
Autoscroll
slow
fast
+/-
esc
set tempo
stop
-------------------------------------------------------------------------------
                             Stronger - Kanye West ft. Daft Punk
-------------------------------------------------------------------------------
Tabbed by:
Email: lalobabalooish@yahoo.com

The Daft Punk Harder Better Faster Stronger sampling is tabbed out. Check the song for 
rhythm and try playing it with a talk box. That should sound cool.

Tuning: Drop D (DADGBe)

Intro:
e|---------------------------------------------------------------------------|
B|---------------------------------------------------------------------------|
G|---------------------------------------------------------------------------|
D|--------1--1--------4--4---6h8p6--4h6p4------------------------------------|
A|-----------------------------------------8--6------------------------------|
D|--1--1--------4--4-----------------------------8--6------------------------|

Verse:
e|---------------------------------------------------------------------------|
B|---------------------------------------------------------------------------|
G|--------------3-----------------------1-----------------------1------------|
D|--------1--4-----4--1--4--------3--------4--3--4--------1--------4--1------|
A|--------------------------4--4-----4--------------3--3-----3-----------3---|
D|--1--4---------------------------------------------------------------------|

e|---------------------------------------------------------------------------|
B|---------------------------------------------------------------------------|
G|---------------------------------------------------------------------------|
D|--------1--4---------------------------------------------------------------|
A|--2--2---------------------------------------------------------------------|
D|--------------1--1--1--1---------------------------------------------------|

Verse Part 2:
e|---------------------------------------------------------------------------|
B|---------------------------------------------------------------------------|
G|---------------------------------------------------------------------------|
D|--------1--4--------------------1--4--------------6h8p6--1--4--------------|
A|---------------------------------------------------------------------------|
D|--1--1--------1--1--1--1--1--1--------1--1--1--1---------------1--1--1--1--|

e|---------------------------------------------------------------------------|
B|---------------------------------------------------------------------------|
G|---------------------------------------------------------------------------|
D|--4h6p4--1--4--------------------1--4--------------------1--4--------------|
A|---------------------------------------------------------------------------|
D|---------------1--1--1--1--1--1--------1--1--1--1--1--1--------1--1--1--1--|

e|---------------------------------------------------------------------------|
B|---------------------------------------------------------------------------|
G|---------------------------------------------------------------------------|
D|--6h8p6--1--4--------------6h8p6--4h6p4------------------------------------|
A|-----------------------------------------8--6------------------------------|
D|---------------1--1--1--1----------------------8--6------------------------|

The chorus is just the first part of the verse, and the verse repeats throughout the song.
comments
We did not receive enough feedback on this tab! Please rate:
print report bad tab
1 2 3 4 5
I want to post or [tab]
guest
You may want to rate the tab now too:
select rating
Please do not post tabs as comments. Select "correction" instead!