Oops, an error
Loading. Please wait.

Taiyou No Uta Tab

51,761 views 90 this week
1 commentread comment
1 2 3 4 5
excellent!
x 5
add to favorites
launch autoscroll
font size
0
reset
how to read this tab
guitar tuner
Tab Pro tools
  • play this tab
  • loop segment
  • change instrument
  • show fretboard
  • metronome
Autoscroll
slow
fast
+/-
esc
set tempo
stop
Contributor
Taiyou No Uta by Kaoru Amane

Transcribed by : Alfred Chai 
MSN : bobsixteen@hotmail.com

Tuning : STANDARD (EADGBE)

INTRO :

( G  Cadd9  G  Cadd9 ) x 2

Riff : 
E||--10-------------------12--10----10-------------10~~-----|
B||------8------8--13--8----------------8-------8-----------|
G||---------11-----------------------------11---------------|
D||---------------------------------------------------------|
A||---------------------------------------------------------|
E||---------------------------------------------------------|



VERSE 1 : 

G          D
Furueteiru watashi no te ni
Em            C
Hajimete kimi ga furete
G              D
Yasashii kimochi atatakasa ni
Em          C
Yatto kizuitanda



PRE CHORUS : 

RIFF : 
    Am7                   Am7
E||--3----------3--2-------3--------------------------------|
B||--1----------------3----1--------------------------------|
G||--2-------2-------------2--------------------------------|
D||--2---0-----------------2--------------------------------|
A||--0---------------------0--------------------------------|
E||---------------------------------------------------------|

Am7                  D
Tozashita mado akereba
Am7                  B7
Atarashii kaze ga fuita



CHORUS : 

C       D7    G            Em  
Waratte naite kimi to deaete
C           D7       Em      E
Mieru sekai wa kagayakidashita
C             D7
Himawari yureru
G      D        Em
Taiyoo no shita de
     Am7      B7         Em  C  Em  C~
Kanjiteita kaze o kimi o


CHORUS OUTRO : 
E||--10-------------------12--10----10-------------10~~-----|
B||------8------8--13--8----------------8-------8-----------|
G||---------11-----------------------------11---------------|
D||---------------------------------------------------------|
A||---------------------------------------------------------|
E||---------------------------------------------------------|



VERSE 2 : 

RIFF x 2 :   
E||----------2--(    )--------------------------------------------|
B||-------3-----(    )-------3--5--3------------------------------|
G||----0--------( x3 )----0---------------------------------------|
D||-------------(    )--------------------------------------------|
A||--3----------(    )-3------------------------------------------|
E||-------------(    )--------------------------------------------|

G             D
Shinjiru koto mayou koto mo
Em                C
Tachidomaru koto mo zenbu
G              D
Watashi ga ima koko de ikiteru
Em                 D
Kotae kamo shirenai



PRE CHORUS : 

RIFF:
    Am7                   Am7
E||--3----------3--2-------3--------------------------------|
B||--1----------------3----1--------------------------------|
G||--2-------2-------------2--------------------------------|
D||--2---0-----------------2--------------------------------|
A||--0---------------------0--------------------------------|
E||---------------------------------------------------------|

Am7                   D
Monokuro no mainichi ga
Am7                B7
Irozuite yuku yoo ni


CHORUS :

C       D7    G            Em  
Waratte naite kimi to deaete
C           D7     Em      E
Mieru mirai wa kagayaiteita
C             D7
Himawari yureru
G      D        Em
Taiyoo no shita de
     Am7         B7
Watashi no mama ashita o

Utau yo  Em  C  Em  C 



BRIDGE
E||--10-------------10--------------------------------------|
B||------8------8-------8------8--10--8--10--8--------------|
G||---------11-------------11-------------------------------|
D||---------------------------------------------------------|
A||---------------------------------------------------------|
E||---------------------------------------------------------|

Riff x 3
E||--------------------2------------------------------------|
B||--------3--------3-----------3---------3-----------------|
G||-----5--------5-----------5---------5--------------------|
D||--0--------0-----------0---------0-----------------------|
A||---------------------------------------------------------|
E||---------------------------------------------------------|

C                 C   
Kagiri aru hibi o tomaranai jikan o
Em                 D            Am7
Doredake aiseru kana? Aiseru yone
Em   C        D           
Kimi ga ireba hikari sae mo
Dsus4       B7
Sorasanaide



CHORUS (soft to loud) : 

C       D7    G            Em  
Waratte naite kimi to deaete
C           D7     Em      E
Mieru mirai wa kagayaiteita
C             D7
Himawari yureru
G      D        Em
Taiyoo no shita de
     Am7         B7
Watashi no mama ashita o


C               D7 G             Em
Arigatoo tsutaetai imanara ieru yo
C                 D7        Em         E
Sugoshita kisetsu mo wasure wa shinai yo
C            D7      G    D   Em
Himawari yureru taiyoo no yoo ni
     Am7         B7
Watashi no uta kimi o terasu yo

Watashi no mama kimi o...



OUTRO 
E||--10-------------10------------10---------------------------|
B||------8------8-------8------8------8------8--10--8--12--8---|
G||---------11-------------11------------11--------------------|
D||------------------------------------------------------------|
A||------------------------------------------------------------|
E||------------------------------------------------------------|

na na naaaaa...  na na naaaaa... 

RIFF x 3            * alternate between 12 or 11 (up to you)            
E||---------------10----------------------------------------|
B||------------------8------8--10--8--*[12]--8--------------|
G||----------------------11-------------11------------------|
D||---------------------------------------------------------|
A||---------------------------------------------------------|
E||---------------------------------------------------------|


E||--10-------------3~--------------|
B||------8------8---3~--------------|
G||---------11------4~--------------|
D||-----------------5~--------------|
A||-----------------5~--------------|
E||-----------------3~--------------|

comments
print report bad tab
1 comment total.
0 reply
xXBlackCat wrote on June 15 2007, 09:16 pm

this is how the chorus should be:

C D G Em
Waratte naite kimi to deaete
Am7 B7 Em E7
Mieru sekai wa kagayakidashita
C D
Himawari yureru
G D Em
Taiyoo no shita de
Am7 B7 Em Cadd9 Em Cadd9
Kanjiteita kaze o kimi o

by the way
the riff is also kind off.
it should be:

Riff :
E||--10-----------10-----12--10----10-----------10-----|
B||------8--7--8------8----------------8--7--8---------|
G||----------------------------------------------------|
D||----------------------------------------------------|
A||----------------------------------------------------|
E||----------------------------------------------------|

and Am7 is x02010
not x02213

I want to post or [tab]
guest
You may want to rate the tab now too:
select rating
Please do not post tabs as comments. Select "correction" instead!