Oops, an error
Loading. Please wait.

Su Falso Mundo bass

53 views 1 this week
no commentswrite comment
1 2 3 4 5
3 more votes to show rating
add to favorites
×
Save as Personal and add changes to this tab that will be seen only by you. Learn more ›
×
You can save this tab as Personal to edit and correct it or add notes. All changes will be seen only by you. Learn more »
launch autoscroll
font size
0
reset
guitar tuner
edit
Autoscroll
slow
fast
+/-
esc
set tempo
stop
Weno, ay va la transcripcion de esta peazo kancion de
kaos etiliko (kaotiko).Yo no soi bajista, pero weno, la e
sakao pa el bajista de mi grupo y esta 100% korrecta ya
ke es bastante sencilla. Salud...

Weno, la vamos a dividir en 3 partes pa acerlo mas facil todavia
al principio es distinto pero luego es la cancion to el rato =.
Ay va:

Parte 1

|---------------------------------|
|---------------5-----------------|
|-7-7-7-7-7-7-7---7-7-7-7-7-7-7-7-|
|---------------------------------|


Parte 2

|---------------------------------|
|---------------------------------|
|-7-7-7-7-7-7-7-7-5-5-5-5-7-7-7-7-|
|---------------------------------|


Parte 3

|----------------------------------------------------------------|
|----------------------------------------------------------------|
|-7-7-7-7-3-3-3-3-5-5-5-5-7-7-7-7-7-7-7-7-7-7-7-7-5-5-5-5-7-7-7-7|
|----------------------------------------------------------------|


Parte 1 x4
Parte 3 x1
Parte 2 x2
Parte 3 x1
Parte 2 x2
Parte 3 x1
Parte 2 x2
Parte 3 x1
Parte 2 x2
Parte 3 x1
Parte 2 x2
Parte 3 x1


Hasta el final ya lo sakas tú es todo el rato y termina en parte 3.
Todo el rato Parte 2 x2 y Parte 3 x1.

            
            
Suggest correction
Creating personal tab
Creating personal tab
You can edit any tab online and save it as your Personal.

You can edit, replace or remove any tab part or add personal notes – all changes will be seen only by you.

Personal tabs can be accessed anytime from any device, even offline.
Learn more »
Give kudos to tab author, rate the tab!
1 2 3 4 5
comments
print report bad tab
guest
Wanna post a correction for this tab? Suggest correction