Oops, an error
Loading. Please wait.

Inadaptados bass

84 views 1 this week
no commentswrite comment
1 2 3 4 5
3 more votes to show rating
add to favorites
×
Save as Personal and add changes to this tab that will be seen only by you. Learn more ›
×
You can save this tab as Personal to edit and correct it or add notes. All changes will be seen only by you. Learn more »
launch autoscroll
font size
0
reset
guitar tuner
edit
Autoscroll
slow
fast
+/-
esc
set tempo
stop
Hola aqui otra cancion del kaos para mi una de las mejoresy facil de tocar
esta es una transcripcion que hizo don beto pasandolo de la guitarra
no es mi trabajo, solo he comprobado que si es el tab y la subi
la cancion empieza así

G]--------------------------|------------------------]
D]--------------------------|------------------------]
A]---------2-2--------------|------2-2---------------]
E]----4-4-------2-2--4-4-4--|-4-4-------2-2---4-4-4--]

aqui va con el punteo de la guitarra


G]-------------------------------------------]
D]-------------------------------------------]  x 8
A]-----------2-2-2-2-------------------------]
E]--4-4-4-4-----------2-2-2-2----4-4-4-4-----]

CORO:
Para siempre inadaptados

G]-----------------------]
D]-----------------------]
A]------3----------------]
E]---7-----3---5-5-5-5---]

inadaptado hata el final

G]-----------------------]
D]-----------------------]
A]------3----------------]
E]---7-----3---5-5-5-5---]

x 2

G]-------------------------------------------]
D]-------------------------------------------]  x 8
A]-----------2-2-2-2-------------------------]
E]--4-4-4-4-----------2-2-2-2----4-4-4-4-----]

esto es todo el puente y la letra hasta el siguiente coro


CORO:
Para siempre inadaptados

G]-----------------------]
D]-----------------------]
A]------3----------------]
E]---7-----3---5-5-5-5---]

inadaptado hata el final

G]-----------------------]
D]-----------------------]
A]------3----------------]
E]---7-----3---5-5-5-5---]

x 2

en la segunda vuelta del coro se deja sonar la cuerda E 5
vamos con el solo de bajo que es el mismo ritmo
procuren lucirse aqui gritando "anarquiaaaa!" xD
el ritmo se lo va dando la batería y se va acelerando
hasta que entra la guitarra

G]-------------------------------------------]
D]-------------------------------------------]
A]-----------2-2-2-2-------------------------]
E]--4-4-4-4-----------2-2-2-2----4-4-4-4-----]

esto se toca hasta que la guitarra termine su solo
entonces va un handmute (silencio )se corta en el E4
si tocan una version fiel ala original esta figura se repite 10 veces

Oi!!


G]-----------------------]
D]-----------------------]
A]------3----------------] x 2
E]---7-----3---5-5-5-5---]

para siempre inadaptados...

G]-----------------------]
D]-----------------------]
A]------3----------------]
E]---7-----3---5-5-5-5---]

inadaptado hasta el final

G]-----------------------]
D]-----------------------]
A]------3----------------]
E]---7-----3---5-5-5-5---]

x2

solo de guitarra con coros

inadaptados!
G]-------------------------------------------]
D]-------------------------------------------]  x 10
A]-----------2-2-2-2-------------------------]
E]--4-4-4-4-----------2-2-2-2----4-4-4-4-----]

Cierre

G]--------------------------|-----------------------------------]
D]--------------------------|-----------------------------------]
A]---------2-2--------------|------2-2-------------2---------2--]
E]----4-4-------2-2--4-4-4--|-4-4-------2-2---4--2---4--4--2---4]

bien pues la puse muy detallada se ve larga pero en si solo son 3 figuras
gracias a don beto que la pasó
pasensela chido cualquier duda corrección o comentario

chequen los videos y tambien pueden contactarnos un saludo de ltaBR
salud y anarquía

            
            
Suggest correction
Creating personal tab
Creating personal tab
You can edit any tab online and save it as your Personal.

You can edit, replace or remove any tab part or add personal notes – all changes will be seen only by you.

Personal tabs can be accessed anytime from any device, even offline.
Learn more »
Give kudos to tab author, rate the tab!
1 2 3 4 5
comments
print report bad tab
guest
Wanna post a correction for this tab? Suggest correction