Oops, an error
Loading. Please wait.

Larga Vida Al Oi bass

103 views 1 this week
no commentswrite comment
1 2 3 4 5
3 more votes to show rating
add to favorites
×
Save as Personal and add changes to this tab that will be seen only by you. Learn more ›
×
You can save this tab as Personal to edit and correct it or add notes. All changes will be seen only by you. Learn more »
launch autoscroll
font size
0
reset
guitar tuner
edit
Autoscroll
slow
fast
+/-
esc
set tempo
stop
Intro y verso
G]---------------------------------------------------------------]
D]-----------------------------------------6-7-6-----------------]
A]-7-7-7-7-6-7-7-7------------------------7----------------------]
E]-----------------7-7-7-7-6-7-7-7--5--7-----------7-7-7---------]


BANDA DE BORRACHOS DEGENERADOS
VIOLENTOS ARMADOS Y ALKOLIZAOS
NO SON RECIBIDOS EN NIGNUN LUGAR
EN TODOS LOS BARES RECHAZADOS


PUNKS Y SKINS, SEGUIMOS AKI
Y NO VAMOS A DESISTIR
LUCHAREMOS POR LO NUESTRO
LARGA VIDA AL OI!

CORO
G]-----------------------------------------------------------------]
D]---6-7-6---6-7-6------------------------------------6-7-6--------]
A]-7-------7---------6-7-6---6-7-6-------------6-7-6-7-------------]
E]-----------------7-------7--------5-5-5-5-9-7-------------7-7-7--]

LARGA VIDA AL OI!
LARGA VIDA AL OI!
LUCHAREMOS POR LO NUESTRO
LARGA VIDA AL OI!

OTRA VEZ
VERSO
G]---------------------------------------------------------------]
D]-----------------------------------------6-7-6-----------------]
A]-7-7-7-7-6-7-7-7------------------------7----------------------]
E]-----------------7-7-7-7-6-7-7-7--5--7-----------7-7-7---------]

ELLOS NO QUERIAN VERNOS
REZARON POR VERNOS MORIR
BATALLOS EN EL INFIERNO
LARGA VIDA AL OI!

LARGA VIDA AL OI!
LARGA VIDA AL OI!
LUCHAREMOS POR LO NUESTRO
LARGA VIDA AL OI!

CORO

G]-----------------------------------------------------------------]
D]---6-7-6---6-7-6------------------------------------6-7-6--------]
A]-7-------7---------6-7-6---6-7-6-------------6-7-6-7-------------]
E]-----------------7-------7--------5-5-5-5-9-7-------------7-7-7--]
Suggest correction
Creating personal tab
Creating personal tab
You can edit any tab online and save it as your Personal.

You can edit, replace or remove any tab part or add personal notes – all changes will be seen only by you.

Personal tabs can be accessed anytime from any device, even offline.
Learn more »
Give kudos to tab author, rate the tab!
1 2 3 4 5
comments
print report bad tab
guest
Wanna post a correction for this tab? Suggest correction