Oops, an error
Loading. Please wait.

Juerga tab

version 1
version 1

Whole song

by Kaotiko
196 views 3 this week
no commentswrite comment
1 2 3 4 5
3 more votes to show rating
add to favorites
×
Save as Personal and add changes to this tab that will be seen only by you. Learn more ›
×
You can save this tab as Personal to edit and correct it or add notes. All changes will be seen only by you. Learn more »
launch autoscroll
font size
0
reset
how to read this tab
guitar tuner
edit
Autoscroll
slow
fast
+/-
esc
set tempo
stop
Intro

SI SOL RE LA X2

Punteo intro:

e|-7---7-7-5-3---3-3-3-9---9-9-7---7--------|
B|---7---------3---------7-------9---10--5-7|
G|------------------------------------------|
D|------------------------------------------|
A|------------------------------------------|
E|------------------------------------------|

e|-7---7-7-5-3---3-3-3-9---9-9---7-912|
B|---7---------3---------7-----9------|
G|------------------------------------|
D|------------------------------------|
A|------------------------------------|
E|------------------------------------|

SI                   SOL                    RE
En la oscuridad del día encuentras el amanecer
              LA
¡¡¡y te da igual!!!
SI                   SOL                    RE
en la noche hay de todo, ¡¡¡todo lo que quieras
          LA
para gastar!!!

(Se repite el inicio)
SI SOL RE LA X2
e|-7---7-7-5-3---3-3-3-9---9-9---7-912-|
B|---7---------3---------7-----9--------|
G|--------------------------------------|
D|--------------------------------------|
A|--------------------------------------|
E|--------------------------------------|


RE                 SI
A liar, la noche es breve
MI                  LA                       RE
presupuesto hay que tener para poderte mantener
                     SI                  MI
la canción de los Ramones (Hey oh! let's go!)
LA
a un volumen criminal y empezamos a votar.

SI
Juerga, dejando la noche
SOL
juerga, los ardores
RE                           LA
juerga es lo que quiero y no más preocupaciones.

e|-7-7-7---7---7-7-7---7-------------------|-7-7-7---7---7-7-7---7----7-22v
B|-------7---7-------7---7-8-8-8-810-6-6-6-|-------7---7-------7---7--7-22v
G|-----------------------------------------|------------------------------
D|-----------------------------------------|------------------------------
A|-----------------------------------------|------------------------------
E|-----------------------------------------|------------------------------


SI
Juerga, dejando la noche
SOL
juerga, los ardores
RE                        LA
juerga es lo que quiero y muchos rock and roll´s.
SI              SOL
Azúcar o harina siempre sueltas la gallina
RE            LA
¡¡¡si quieres más!!!
SI                 SOL
si quieres lo coges y si no, no pasa nada
RE           LA
¡¡¡a buscar más!!!

SI
Juerga, dejando la noche
SOL
juerga, los ardores
RE                           LA
juerga es lo que quiero y no más preocupaciones.

RE                 SI
Todos queremos más juerga
MI             LA                      RE
queremos disfrutar y olvidarnos de currar.
                   SI
Todos queremos más juerga
MI                 LA
a un volumen criminal empezamos a votar.

SI
Juerga, dejando la noche
SOL
juerga, los ardores
RE                        LA
juerga es lo que quiero y muchos rock and roll´s.
SI
Juerga, dejando la noche
SOL
juerga, los ardores
RE                           LA
juerga es lo que quiero y no más preocupaciones.

            
            
Suggest correction
Creating personal tab
Creating personal tab
You can edit any tab online and save it as your Personal.

You can edit, replace or remove any tab part or add personal notes – all changes will be seen only by you.

Personal tabs can be accessed anytime from any device, even offline.
Learn more »
Give kudos to tab author, rate the tab!
1 2 3 4 5
comments
print report bad tab
guest
Wanna post a correction for this tab? Suggest correction