Oops, an error
Loading. Please wait.

Otra Noche bass

by Kaotiko
463 views 1 this week
no commentswrite comment
1 2 3 4 5
3 more votes to show rating
add to favorites
×
Save as Personal and add changes to this tab that will be seen only by you. Learn more ›
×
You can save this tab as Personal to edit and correct it or add notes. All changes will be seen only by you. Learn more »
launch autoscroll
font size
0
reset
guitar tuner
edit
Autoscroll
slow
fast
+/-
esc
set tempo
stop
Hola bola vrayola
jajjjajjaja
ps...
le dejo esta rola de un buen grupo como
lo es kaotico
esperando que les guste
califiquenla chido carnales
la neta no se si esta bn
lo unico que falla es el tiempo
tareten de darselo rapido
y si faltan mas vaces los acordes
ps.... aganlos
jajajaja!!!!!!!!!

Intro (0:23)
G||--------------------------|--------------------------|
D||--------------------------|--------------------------|
A||--6--6--6--6--6--6--6--6--|--------------------------|
E||--------------------------|--6--6--6--6--6--6--6--6--|
                                                            x2
G||--------------------------|--------------------------|
D||--------------------------|--------------------------|
A||--3--3--3--3--3--3--3--3--|--------------------------|
E||--------------------------|--4--4--4--4--4--4--4--4--|

verso (0:40)
G||--------------------------|--------------------------|
D||--------------------------|--------------------------|
A||--6--6--6--6--6--6--6--6--|--------------------------|
E||--------------------------|--6--6--6--6--6--6--6--6--|
                                                            x4
G||--------------------------|--------------------------|
D||--------------------------|--------------------------|
A||--3--3--3--3--3--3--3--3--|--------------------------|
E||--------------------------|--4--4--4--4--4--4--4--4--|

Otra noche para el bar
hemos salido a ver que pasa,
una vez más, nos vamos a drogar.
Va subiendo el calentón
y se van llendo mis problemas,
una vez más, mañana volverán.
El mundo pasa ante mí
y la película es muy mala,
ciencia ficción,
nos vamos a drogar.
Hay quien busca el colocón
y otros ¡sexo de rebajas!,
yo estoy muy bien. Mañana volveré.


Coro (1:15)
G||--------------------------|--------------------------|
D||--------------------------|--------------------------|
A||--6--6--6--6--6--6--6--6--|--------------------------|
E||--------------------------|--6--6--6--6--6--6--6--6--|
                                                            x2
G||--------------------------|--------------------------|
D||--------------------------|--------------------------|
A||--3--3--3--3--3--3--3--3--|--------------------------|
E||--------------------------|--4--4--4--4--4--4--4--4--|

Sin política y sin dios
sin que nadie me sujete.
Vete a mamar
no me entretengas más,
que huevo ni que cojón
hoy no seré amigo de nadie
vete a soñar
me voy a colocar.

(1:32)
G||-----------------------------|
D||-----------------------------|
A||--6--6-6-6--6-6-6--6-6-6--6--|
E||-----------------------------|

verso (0:40)
G||--------------------------|--------------------------|
D||--------------------------|--------------------------|
A||--6--6--6--6--6--6--6--6--|--------------------------|
E||--------------------------|--6--6--6--6--6--6--6--6--|
                                                            x2
G||--------------------------|--------------------------|
D||--------------------------|--------------------------|
A||--3--3--3--3--3--3--3--3--|--------------------------|
E||--------------------------|--4--4--4--4--4--4--4--4--|

No hay dinero, ni colegas
tendré que irme para casa
llegó el final,
de tanta diversión.
La función se terminó
alguno ha hecho buena caja
a lo mejor
¡me voy a casa o no!

Coro (1:51)
G||--------------------------|--------------------------|
D||--------------------------|--------------------------|
A||--6--6--6--6--6--6--6--6--|--------------------------|
E||--------------------------|--6--6--6--6--6--6--6--6--|
                                                            x2
G||--------------------------|--------------------------|
D||--------------------------|--------------------------|
A||--3--3--3--3--3--3--3--3--|--------------------------|
E||--------------------------|--4--4--4--4--4--4--4--4--|

Sin política y sin dios
sin que nadie me sujete.
Vete a mamar
no me entretengas más,
que huevo ni que cojón
hoy no seré amigo de nadie
vete a soñar
me voy a colocar.

Requinto (2:08)
G||--------------------------|---------------------|
D||--------------------------|---------------------|
A||--------------------------|--6----5----3--------|
E||--4--4--4--4--6--6--6--6--|---------------------|
                                                      x2
G||--------------------------|---------------------|
D||--------------------------|---------------------|
A||--------------------------|--3----5----6--------|
E||--4--4--4--4--6--6--6--6--|---------------------|

Coro (2:26)
G||--------------------------|--------------------------|
D||--------------------------|--------------------------|
A||--6--6--6--6--6--6--6--6--|--------------------------|
E||--------------------------|--6--6--6--6--6--6--6--6--|
                                                            x4
G||--------------------------|--------------------------|
D||--------------------------|--------------------------|
A||--3--3--3--3--3--3--3--3--|--------------------------|
E||--------------------------|--4--4--4--4--4--4--4--4--|

Sin política y sin dios
sin que nadie me sujete.
Vete a mamar
no me entretengas más,                 x2
que huevo ni que cojón
hoy no seré amigo de nadie
vete a soñar
me voy a colocar.

(3:00)                 (3:09)
G||-------------------|-------------------|
D||-------------------|-------------------|
A||-------------------|--6----------------|
E||--4----------------|-------------------|


buerno.....
ps..
cualquier duda o comentario
dejenlo
me largo..
BYE

            
            
Suggest correction
Creating personal tab
Creating personal tab
You can edit any tab online and save it as your Personal.

You can edit, replace or remove any tab part or add personal notes – all changes will be seen only by you.

Personal tabs can be accessed anytime from any device, even offline.
Learn more »
Give kudos to tab author, rate the tab!
1 2 3 4 5
comments
print report bad tab
guest
Wanna post a correction for this tab? Suggest correction