Oops, an error
Loading. Please wait.

Visto Lo Visto tab

by Kaotiko
50 views 1 this week
no commentswrite comment
1 2 3 4 5
3 more votes to show rating
add to favorites
×
Save as Personal and add changes to this tab that will be seen only by you. Learn more ›
×
You can save this tab as Personal to edit and correct it or add notes. All changes will be seen only by you. Learn more »
launch autoscroll
font size
0
reset
how to read this tab
guitar tuner
edit
Autoscroll
slow
fast
+/-
esc
set tempo
stop
Visto lo visto: Por Abeloki
--------------------------------------------------
--------------------------------------------------
-------------------------------------------------- x2
----5---------5--------5--------------------------
-3------3--2-----2--0-------------------3--3--0---
---------------------------5---3---3h5------------
al finalizar esto hace primero un do que deja suelto y después
un tananananana en sol en 5º cuerda y empieza a cantar...

DO                     SI
Tengo un futuro tan prometedor ¡¡uuoooo!!
LA                SOL(sexta cuerda en mayúscula)
de camarero o de repartidor ¡¡uuoooo!!
FA(º5 cuerda)      DO
hacer las camas en un gran hotel
  RE              SOL (quinta cuerda en minúscula)
o dependienta del corte inglés.

DO                    SI
Vivo una vida algo provisional ¡¡uuoooo!!
LA                        SOL
me han prometido que esto va a cambiar ¡¡uuoooo!!
FA                  DO
y si soy bueno y me porto bien
RE          SOL
algún día triunfaré.

tan tan tarara en sol... y el Estribillo sin palm mute:

DO                      FA           SOL               DO
Visto lo visto no hay nada que ver, lo tengo todo muy claro
FA                 SOL             DO  SOLx8
siendo un borrego no voy a ningún lado.
DO                      FA           SOL               DO
Visto lo visto no hay nada que ver, lo tengo todo muy claro
FA               SOL             DO  SOLx8
no estoy a gusto haciendo de pringao.

ahora empieza una melodía parecida a la del principio sobre estos acordes:

DO SI LA SOL
-------------------------------------------------------------------------
-------------------------------------------------------------------------
------12-------12------12------------------------12------12----12----12--
--10------10-9----9-7-----7-5--------10-10----10----10-9----9-----10---10-
-------------------------------10h12-------12----------------------------
-------------------------------------------------------------------------
Sigue lo mismo que al principio...

Hoy me he largado de otro curro más
y los imbéciles que tengo al lado
me miran como a un loco de atar
desgraciado ¿a dónde irás?
Si tu no quieres muchos más vendrán
hay mucha gente que vive peor
hay mucha gente que desea estar
¡¡ocupando tu lugar!!

Estribillo

y después sobre fa re do si la Sol la y si creo que hace esto:

-------------------
-------------------
--12-12-12-12-12--- tol rato
--10-10-10-10-10---
-------------------
-------------------

sol sol sol... y Estribillo, después la segunda melodía

Hoy me he largado de otro curro más
y los imbéciles que tengo al lado
me miran como a un loco de atar
desgraciado ¿a dónde irás?
Si tu no quieres muchos más vendrán
hay mucha gente que vive peor
hay mucha gente que desea estar
¡¡ocupando tu lugar!!

...Y acaba con el estribillo

Es mi primera tablatura asi ke habrá cosas mal seguro,
para lo que querais mi correo es abelokiatope@
Gracias a to la peña por mandar vuestras tablaturas aquí,
porque gracias a ellas estoy aprendiendo a
echar ruido con la guitarra.

            
            
Suggest correction
Creating personal tab
Creating personal tab
You can edit any tab online and save it as your Personal.

You can edit, replace or remove any tab part or add personal notes – all changes will be seen only by you.

Personal tabs can be accessed anytime from any device, even offline.
Learn more »
Give kudos to tab author, rate the tab!
1 2 3 4 5
comments
print report bad tab
guest
Wanna post a correction for this tab? Suggest correction