Oops, an error
Loading. Please wait.

Crece tab

by Kapanga
47 views 1 this week
no commentswrite comment
1 2 3 4 5
3 more votes to show rating
add to favorites
×
Save as Personal and add changes to this tab that will be seen only by you. Learn more ›
×
You can save this tab as Personal to edit and correct it or add notes. All changes will be seen only by you. Learn more »
launch autoscroll
font size
0
reset
how to read this tab
guitar tuner
edit
Autoscroll
slow
fast
+/-
esc
set tempo
stop
INTRO:
    G       C    G         C  G           C  G
1) -3-3-----0--3-3---------0--3-3---------0--3-3-------]
2) -0--0----1--0---0-------1--0---0-------1--0---0-----]
3) -0---0---0--0-----0-----0--0-----0-----0--0-----0---]
4) -0----0--2--0-------0---2--0-------0---2--0-------0-]
5) -2-----0-3--2---------0-3--2---------0-3--2---------]
6) -3----------3--------------3--------------3---------]


Toda la canción va arpegiada como el intro.

    G           C G                   C             G
1) -3-3---------0-3-3-----------------0-0-----------3-3--------]
2) -0--0--------1-0---0---------------1---1---------0---0------]
3) -0----0------0-0-----0---0p2p0-----0-----0-------0-----0----]
4) -0------0----2-0-------0-------2p0-2-------2-----0-------0--]
5) -2--------0--3-2-------------------3---------3---2----------]
6) -3-------------3---------------------------------3----------]

    Crece,  como  crece;  todo  a  mí  alrededor  crece

     C  G              C   G                C           G         G
1) --0--3-3---------0--3-3------------------0-0---------3-3-------3-]
2) --1--0---0-------1--0---0----------------1---1-------0---0-----0-]
3) --0--0-----0-----0--0----0---0p2p0-------0-----0-----0-----0---0-]
4) --2--0-------0---2--0------0-------2p0---2-------2---0-------0-0-]
5) 0-3--2---------0-3--2--------------------3---------3-2---------2-]
6) -----3--------------3--------------------------------3---------3-]

Crece  tu  panza,  pasan  los  meses,  todo  a  mi  alrededor  crece


    Em               Em Em              Em  G            C  G          G
1) -0-0---------------0--0-0-------------0--3-3----------0--3-3--------3-]
2) -0----0------------0--0----0----------0--0---0--------1--0---0------0-]
3) -0--------0--------0--0-------0-------0--0-----0------0--0-----0----0-]
4) -2------------2----2--2----------2----2--0-------0----2--0-------0--0-]
5) -2-----------------2--2---------------2--2----------0-3--2----------2-]
6) -0-----------------0--0---------------0--3---------------3----------3-]

Y  crece mas,  y  mas,  y  mas,  y  mas  y  mas:  como la vida que me das


   Em         Em Em              Em  A                    C       D
1) -0-0--------0--0-0-------------0---0--0----------------0-0-----2-2---]
2) -0---0------0--0----0----------0---2-----2-------------1----1--3---3-]
3) -0-----0----0--0-------0-------0---2--------2----------0-------2-----]
4) -2-------2--2--2----------2----2---2-----------2-------2-------0-----]
5) -2----------2--2---------------2---0--------------0----3-------0-----]
6) -0----------0--0---------------0---0---------------------------------]

Y crece más,y más,y más,y más y más y yo estoy sentado mirando como todo
crece

Sigue así todo el tema

  C    G      C                  G
Como crece; todo a mí alrededor crece
  C      G         C      G
Como mi planta cuando florece
 C                   G
Todo a mí alrededor crece
  C       G    C           G
Si echa raíces, crece más fuerte
 C                    G
Todo a mí alrededor crece
  C     G      C      G
Va para arriba, desaparece
 C                    G
Todo a mí alrededor crece


Y crece más, y más, y más, y más y más
Como la vida que me das
Y crece más, y más, y más, y más y más
Y yo estoy fumando mirando como todo crece
Crece como crece?..

Y crece más, y más, y más, y más y más
Como la vida que me das
Y crece más, y más, y más, y más y más
Y yo estoy mirando asombrado como todo crece

Esta es mi primera trascripción  es mas o menos así el tema
Aguante comodoro y la renga lokooooo

            
            
Suggest correction
Creating personal tab
Creating personal tab
You can edit any tab online and save it as your Personal.

You can edit, replace or remove any tab part or add personal notes – all changes will be seen only by you.

Personal tabs can be accessed anytime from any device, even offline.
Learn more »
Give kudos to tab author, rate the tab!
1 2 3 4 5
comments
print report bad tab
guest
Wanna post a correction for this tab? Suggest correction