Oops, an error
Loading. Please wait.

El Cuento De Los Tres Konavys bass

by Kapanga
20 views 1 this week
no commentswrite comment
1 2 3 4 5
3 more votes to show rating
add to favorites
×
Save as Personal and add changes to this tab that will be seen only by you. Learn more ›
×
You can save this tab as Personal to edit and correct it or add notes. All changes will be seen only by you. Learn more »
launch autoscroll
font size
0
reset
guitar tuner
edit
Autoscroll
slow
fast
+/-
esc
set tempo
stop
tema: el cuento de los 3 kovanys
autor: kapanga
disco: un asado en abbey road

esta es la base, hay un toque de imporvisacion que aca no esta.
si quieren pueden tocar cualquier nota dos veces que suena bien siempre.
el verso A si quieren lo pueden tocar tambien en la 4ta cuerda y la 3ra.


verso A:

G:-----------------------------------------------------------------------
D:--------------4--2----------------------------------------------------
A: ------ 2--5------- 5--4--2--0--------55--------55-----44------44---    ( X 4)
E:------------------------------------33-------33------22------22-------


estribillo:

G:--------------------------------------------------------------------------------------------
D:------------------------------------------------------------------------------------------- 
A:------------------------------5--4-----------------------------------------------       
E:----5555-----2222-----3333-------------5555----2222-----3333-------5555-------------


verso B:


G:-----------------------------------------------------------------------------
D:-----------------------------------------------------------------------------
A:------9--------7---5--------7------------9------7----5--------3--------    (  X 4)
E:----7--------5-------5-------7--------7-------5--------5--------3------


puente:

G:---------------------------------------------------------------------------------
D:---------------------------------------------------------------------------------
A:---22222222222------------------------------------------------------------     ( X 4)
E:---------------------------333333-------222222-----------------------------


verso A x 4
estribillo
verso b x 4
esrtribillo x 2
verso a x 4
 
termina el tema en un SI


bueno gente, eso es todo, dudas o correciones a elpibetigre@
AGUANTE KAPANGA!!!       elpibetigre
Suggest correction
Creating personal tab
Creating personal tab
You can edit any tab online and save it as your Personal.

You can edit, replace or remove any tab part or add personal notes – all changes will be seen only by you.

Personal tabs can be accessed anytime from any device, even offline.
Learn more »
Give kudos to tab author, rate the tab!
1 2 3 4 5
comments
print report bad tab
guest
Wanna post a correction for this tab? Suggest correction