Oops, an error
Loading. Please wait.

La Taberna tab

by Kapanga
42 views 1 this week
no commentswrite comment
1 2 3 4 5
3 more votes to show rating
add to favorites
×
Save as Personal and add changes to this tab that will be seen only by you. Learn more ›
×
You can save this tab as Personal to edit and correct it or add notes. All changes will be seen only by you. Learn more »
launch autoscroll
font size
0
reset
how to read this tab
guitar tuner
edit
Autoscroll
slow
fast
+/-
esc
set tempo
stop
INTRO S.O.K.

e------------------------------
B------------------------------      Repite eso varias veces
G------------------------------
D------------------------------
A-----0-1-0-------0-1-0--------
E-0-3-------3-0-3-------3------
Intro y Riff principal

e|-3-0---------|-----------|---- -------|---------------|-------------|
B|-----3-0-----|-----------|------------|---------------|-------------|
G|---------2-0-|-----------|-2e-2-0-----|---------------|-0-2-4-------|
D|-------------|-2-0-------|------------|-0-2-0-2-4-2---|-------0-2-4-|
A|-------------|-----2-0---|------------|---------------|-------------|
E|-------------|---------3-|------------|---------------|-------------|

e|-----------------|----------------------|
B|-----------------|-----3----------------|
G|---------0-2-4-0-|-2s4---2-0-2-0-2-0-2--|
D|-----0-2---------|---------------------2|
A|-0-2-------------|----------------------|
E|-----------------|----------------------|

e|-3-0---------|-----------|
B|-----3-0-----|-----------|
G|---------2-0-|-----------|
D|-------------|-2-0-------|
A|-------------|-----2-0---|
E|-------------|---------3-|

G
Preparo mi caballo
D
le pongo el autoestereo
C              D
debo llevar pistolas
        G
para no ir al cementerio
G
Llegando ala taberna
D
me pido un aguardiente
   C                 D
buscando un par de piernas
       G
que no me dejen caliente

C                G
Es la taberna de Bo
C                   D  D1 D1 D C   (D1=xx0233)
y alli se bebe muy bien
C                    Em
quizas tu tengas problemas
A                  D
cuando aparezca la ley

                       G5
Descarten todos los muchachos
       D5
puede ser,
C5       D5         G5     F5/F#5/G5
que te revisen las botas
G5             D5
Ricomisario llego,
C5         D5       G5
Estamo' hasta las pelotas
C5                          G5     A5/G5
Ricomisario, ricomisario, llego... llego
C5
El es un represor, el es un represor
D5                 C#5  C5  D5  D#5
y dicen que anda fuera de la ley

REPITE INTRO

G
Robaron mi caballo
D
chequearon mi auto estereo
C              D
solo tengo pistolas
        G
para no ir al cementerio
G
mejor no tener nada
      D
pues andan revisando
     C            D
hay que tener cuidado
         G
porque esta ricomisario

                       G5
Descarten todos los muchachos
       D5
puede ser,
C5       D5         G5     F5/F#5/G5
que te revisen las botas
G5             D5
Ricomisario llego,
C5         D5       G5
Estamo hasta las pelotas
C5                          G5     A5/G5
Ricomisario, ricomisario, llego... llego
C5
El es un represor, el es un represor
D5                 C#5  C5  D5  D#5
y dicen que anda fuera de la ley
C5                          G5     A5/G5
Ricomisario, ricomisario, llego... llego
C5
El es un represor, el es un represor
D5                 C#5  C5  D5  D#5
y dicen que anda fuera de la ley

FINAL
                              G      G
e|-3-0---------|-----------|--3---|--15---
B|-----3-0-----|-----------|--3---|--15---
G|---------2-0-|-----------|--0---|--16---
D|-------------|-2-0-------|--0---|--17---
A|-------------|-----2-0---|--2---|--17---
E|-------------|---------3-|--3---|--15---


esta va para manu... "el bailarin asesino" =P

            
            
Suggest correction
Creating personal tab
Creating personal tab
You can edit any tab online and save it as your Personal.

You can edit, replace or remove any tab part or add personal notes – all changes will be seen only by you.

Personal tabs can be accessed anytime from any device, even offline.
Learn more »
Give kudos to tab author, rate the tab!
1 2 3 4 5
comments
print report bad tab
guest
Wanna post a correction for this tab? Suggest correction