Oops, an error
Loading. Please wait.

La Taverna bass

by Kapanga
42 views 1 this week
no commentswrite comment
1 2 3 4 5
3 more votes to show rating
add to favorites
×
Save as Personal and add changes to this tab that will be seen only by you. Learn more ›
×
You can save this tab as Personal to edit and correct it or add notes. All changes will be seen only by you. Learn more »
launch autoscroll
font size
0
reset
guitar tuner
edit
Autoscroll
slow
fast
+/-
esc
set tempo
stop
verso:

Preparo mi caballo
A----5--------------
E--3---33-0-1-2-----

Le pongo el auto estereo
D----7----------------
A--5---55-2-3-4-------

Debo llevar pistolas
D-------5------7------
A-----3------5--------

Para no ir al cementerio
A----5--------------
E--3---33-0-1-2-----          repite x1

Primer estribillo:

Es la taberna de bo
D---5---5---5--------------
A-3---3---3-------5---5---5
E---------------3---3---3--

Y alli se bebe muy bien
D---5---5---5--------------
A-3---3---3-------5---5---5
E---------------3---3---3--

Quizas tu tengas problemas
D---5---5---5--------------
A-3---3---3-------5---5---5
E---------------3---3---3--

Cuado aprezca la ley
D---5---5---5--------------
A-3---3---3-------7---7---7
E---------------5---5---5--

Estribillo 2:

Descarten todos los muchachos
E------------------3-3-3-3-3-3

Puede ser que te revisen las botas
A-5-5-5-5-5-3-3-3-3-5-5-5-5---------
E---------------------------3-3-3-3-

Ricomisario llego
A------------5-5-5
E-3-3-3-3-3-3-----

Estamo hasta las pelotas
A-5-5-5-5-5-3-3-3-3-5-5-5-5---------
E---------------------------3-3-3-3-

Ricomisario, ricomisario
A-3-3-3-3-3-3-3-3-3-3-3-3

Llego, llego
E-3-3-3-3-3-3

El es un repesor, el es un repesor
A-3-3-3-3-3-3-3-3-3-3-3-3-3-3-3-3-

Dicen que anda en contra de la ley
A-5-5-5-5-5-5-5-5-5--------------
E-------------------5-5-5-5-5-5-5

Luego repite de nuevo el verso, y al final repite 2 veces
el segundo estribillo. Es facil que saquen el ritmo de esta
cancion.
Espero que la entiendan cualquier consulta escribanme

'La Secta rn'r' junto al rock. Aguante!!

Leandro Molina
l_molina@

            
            
Suggest correction
Creating personal tab
Creating personal tab
You can edit any tab online and save it as your Personal.

You can edit, replace or remove any tab part or add personal notes – all changes will be seen only by you.

Personal tabs can be accessed anytime from any device, even offline.
Learn more »
Give kudos to tab author, rate the tab!
1 2 3 4 5
comments
print report bad tab
guest
Wanna post a correction for this tab? Suggest correction