Oops, an error
Loading. Please wait.

Quiero tab

by Kapanga
11 views 1 this week
no commentswrite comment
1 2 3 4 5
3 more votes to show rating
add to favorites
×
Save as Personal and add changes to this tab that will be seen only by you. Learn more ›
×
You can save this tab as Personal to edit and correct it or add notes. All changes will be seen only by you. Learn more »
launch autoscroll
font size
0
reset
how to read this tab
guitar tuner
edit
Autoscroll
slow
fast
+/-
esc
set tempo
stop
INTRO: F#-A#-D#-B-C#
       F#-A#-D#

e|-----------------|---------------|--------------|----------------|
B|-11-9----9-9-11-9|-----------9---|--------------|-11-9---11-9----|
G|------11---------|-11-10-10----11|-10-8-8-------|-------------11-|
D|-----------------|---------------|--------8-7-7-|----------------|
A|-----------------|---------------|--------------|----------------|
E|-----------------|---------------|--------------|----------------|

e|--------9-11-9-|-9-11-14-16-14---|---------------|
B|-9-9-11--------|-----------------|---------------|
G|---------------|-----------------|---------------|
D|---------------|-----------------|--4-3-4-5-6-6--|
A|---------------|-----------------|---------------|
E|---------------|-----------------|---------------|


F#
Nisiquiera soy ateo,
A#
Porque casi en nada creo,
D#
Pero estoy buscando,
B                                C#
Algo que hace muchos años que perdi.


F#
Casi siempre y aunque quiero,
A#
Hago apenas lo que puedo.
D#
Se me rompio el frasco,
   B               C#
Me quede sin caramelos.


B
No se lo que iba a decir,
C#
Parece que me perdi.
     G#                       F#
¿De que carajo estabamos hablaaando?


Estribillo:

 F#    B       C#        F#
Quiero, recuperar mi memoria
B      C#        F#      B      C#           E      C#
Y recordar una historia,   y recordar un lugaaar.
 F#    B       C#        F#
Quiero, recuperar mi memoria,
B      C#        F#        B          C#         F#
Para que algunas historias, No vuelvan nunca jamas.

SOLO1
e|-----------------|---------------|--------------|----------------|
B|-11-9----9-9-11-9|-----------9---|--------------|-11-9---11-9----|
G|------11---------|-11-10-10----11|-10-8-8-------|-------------11-|
D|-----------------|---------------|--------8-7-7-|----------------|
A|-----------------|---------------|--------------|----------------|
E|-----------------|---------------|--------------|----------------|

e|--------9-11-9-|-9-11-14-16-------14----|---------------|
B|-9-9-11--------|------------16-14----16-|---------------|
G|---------------|------------------------|---------------|
D|---------------|------------------------|--4-3-4-5-6-6--|
A|---------------|------------------------|---------------|
E|---------------|------------------------|---------------|


F#
Voy a hacer lo de la gloria,
A#
A pedir por mi memoria,
D#
A pesar de todo,
B                    C#
No me acuerdo lo que vine a buscar.

F#
Era una mañana rara,
A#
Algo entro por mi ventana,
D#
Iluminando todo,
  B                C#
La señal que yo esperaba.


B
No se lo que iba a decir,
C#
Parece que me perdi.
     G#                       F#
¿De que carajo estabamos hablaaando?


Estribillo:

 F#    B       C#        F#
Quiero, recuperar mi memoria
B      C#        F#      B      C#           E      C#
Y recordar una historia,   y recordar un lugaaar.
 F#    B       C#        F#
Quiero, recuperar mi memoria,
B      C#        F#        B          C#         F#
Para que algunas historias, No vuelvan nunca jamas.


Solo 2

B
No se lo que iba a decir,
C#
Parece que me perdi.
     G#                       F#
¿De que carajo estabamos hablaaando?


 F#    B       C#        F#
Quiero, recuperar mi memoria
B      C#        F#      B      C#           E      C#
Y recordar una historia,   y recordar un lugaaar.
 F#    B       C#        F#
Quiero, recuperar mi memoria,
B      C#        F#        B          C#         F#  E           F#
Para que algunas historias, No vuelvan nunca jamas.   Quieroooooo

            
            
Suggest correction
Creating personal tab
Creating personal tab
You can edit any tab online and save it as your Personal.

You can edit, replace or remove any tab part or add personal notes – all changes will be seen only by you.

Personal tabs can be accessed anytime from any device, even offline.
Learn more »
Give kudos to tab author, rate the tab!
1 2 3 4 5
comments
print report bad tab
guest
Wanna post a correction for this tab? Suggest correction