Oops, an error
Loading. Please wait.

In The Shade Of The Sun Tab

1,710 views 12 this week
no commentswrite comment
1 2 3 4 5
excellent!
x 3
add to favorites
launch autoscroll
font size
0
reset
how to read this tab
guitar tuner
Autoscroll
slow
fast
+/-
esc
set tempo
stop
Help us to improve Ultimate-Guitar.com Take our survey!
×
Author
Kapitan Korsakov-In the Shade of the Sun

Amazing song by an amazing Belgian band!

Tuning: Standard
Key: Cm
Tabbed By: Tim Van de Voorde

Intro riff (Bass part tabbed for guitar)
  Cm               Ab              Eb
E|---------------------------------------------------------------------------------|
B|---------------------------------------------------------------------------------|
G|---------------------------------------------------------------------------------|
D|---------------------------------------------------------------------------------|
A|---------------------------------------------------------------------------------|
E|-8-8-8-8-8-8-8-8-4-4-4-4-4-4-4-4-11-11-11-11-11-11-11-11-11-11-11-11-11-11-11-11-|

O0:42 The guitar comes in with something like this (improvise around this)
E|----------------------------------------------------|
B|--------8---8~---------4---4~-------------11----11~-|
G|------8---8----------5---5-------------12----12-----|
D|---10--------------6----------------13--------------|
A|----------------------------------------------------|
E|-8---------------4---------------11-----------------|

Main riff (1:55)
E|------------------------------------------------------------------|
B|------------------------------------------------------------------|
G|------------------------------------------------------------------|
D|------------------------------------------------------------------|
A|------------------------------------------------------------------|
E|-8-8-8-8-8-8-8-8-11-11-11-11-11-11-11-8-6-6-6-6-6-6-6-6-4-3-4-3-4-|

2:15 Back to intro riff

3:05 Main riff

3:27 Intro riff

4:20 Chords from intro (just strum them once)
Cm-Ab-Eb

4:30 Guitar comes in with the main riff, but an octave higher, so:
E|-----------------------------------------------------------------------------|
B|-----------------------------------------------------------------------------|
G|-----------------------------------------------------------------------------|
D|-10-10-10-10-10-10-10-10-13-13-13-13-13-13-13-10-8-8-8-8-8-8-8-8-6-5-5-6-5-6-|
A|-----------------------------------------------------------------------------|
E|-----------------------------------------------------------------------------|
Very fast strumming!

5:40 Main riff, again an octave lower.

6:17 Solo, very hard to tab this part, you really have to listen to the timing, 
it’s played very fast.
E|----------------------------------------------------------------------------|
B|-16-16-16-16-16-16-16-16-16-16-16-16-18-18-16-16-16-16-18-18-16-16-16-16-16-|
G|----------------------------------------------------------------------------|
D|----------------------------------------------------------------------------|
A|----------------------------------------------------------------------------|
E|----------------------------------------------------------------------------|

E|------------------------------------------------------------------------------|
B|-16-16-16-16-16-18-18-18-20-20-20-21-21-21-20-20-20-18-18-18-18-18-16-16-16---|
G|------------------------------------------------------------------------------|
D|------------------------------------------------------------------------------|
A|------------------------------------------------------------------------------|
E|------------------------------------------------------------------------------|

E|-----------------------------------------18-18-18-18-18-18-18-18-18-20-20-20-20----|
B|-18-18-16-16-16-16-16-16-16-16-16-16-16--------------------------------------------|
G|-----------------------------------------------------------------------------------|
D|-----------------------------------------------------------------------------------|
A|-----------------------------------------------------------------------------------|
E|-----------------------------------------------------------------------------------|

E|-18-18-16-16-16-18-18-18-18-18-18-18-18/18-18-18-18-18-18-18-20-20-20-20-18-18-18--|
B|-----------------------------------------------------------------------------------|
G|-----------------------------------------------------------------------------------|
D|-----------------------------------------------------------------------------------|
A|-----------------------------------------------------------------------------------|
E|-----------------------------------------------------------------------------------|

E|-16-16-16-18-18-18-18-18-----------------------------------------------------------|
B|--------------------------16-16-16-18-18-20-20-18-18-16-16-16-16-18-18-16-16-16-16-|
G|-----------------------------------------------------------------------------------|
D|-----------------------------------------------------------------------------------|
A|-----------------------------------------------------------------------------------|
E|-----------------------------------------------------------------------------------|

E|-----------------------------------------------------------------------------------|
B|-----------------------------------------------------------------------------------|
G|-----------------------------------------------------------------------------------|
D|-13-13-13-13-13-13-13-13-12-12-12-12-12-10-10-10-8-8-8-8-6-6-6-6-5-5-5-6-6-6-5-5-5-|
A|-----------------------------------------------------------------------------------|
E|-----------------------------------------------------------------------------------|

E|----------------------------------------------------20-22-20-22-20-22-20-22-22-22--|
B|-16-16-16-18-18-18-20-20-20-18-18-16-16-16-18-18-18--------------------------------|
G|-----------------------------------------------------------------------------------|
D|-----------------------------------------------------------------------------------|
A|-----------------------------------------------------------------------------------|
E|-----------------------------------------------------------------------------------|

7:28 Intro riff

8:40 End

Tabbed by Tim Van de Voorde.
Suggest correction
Give kudos to tab author, rate the tab!
1 2 3 4 5
comments
print report bad tab
guest
You may want to rate the tab now too:
select rating
Wanna post a correction for this tab? Suggest correction