Oops, an error
Loading. Please wait.

El Baile Oficial tab

18 views 3 this week
no commentswrite comment
1 2 3 4 5
3 more votes to show rating
add to favorites
×
Save as Personal and add changes to this tab that will be seen only by you. Learn more ›
×
You can save this tab as Personal to edit and correct it or add notes. All changes will be seen only by you. Learn more »
launch autoscroll
font size
0
reset
how to read this tab
guitar tuner
edit
Autoscroll
slow
fast
+/-
esc
set tempo
stop
Intro: Entra junto con los vientos
y lo hace muy rapido por eso los numeros estan pegados

LO HACE SOLO 4 VECES!

e.--------------------------------------
B.--------------------------------------
G.--------------------------------------
D.--------------------------------------
A.-----------33-55-33----33-53----------
E.----33-66-----------66----------------

Intro II: SOL - DO (4 Veces)


SOL        DO
 Justo hoy que quiero bailar,
SOL        DO
 justo hoy que quiero bailar,
     SOL       DO        SOL       DO
y no voy, y no voy, y no voy, y no voy.
     SOL      DO          SOL      DO
La policía no baila, gobernador no baila,
      SOL      DO
mi profesor no baila,
      SOL      DO
mi cardenal no baila.

Intro: (Solo 2 Veces)

e.--------------------------------------
B.--------------------------------------
G.--------------------------------------
D.--------------------------------------
A.-----------33-55-33----33-53----------
E.----33-66-----------66----------------

Intro II: SOL - DO (4 Veces, con ritmo ska)


SOL             DO
 Hoy nadie mira y yo quiero bailar,
SOL             DO
 hoy nadie mira y yo quiero bailar,
    SOL       DO        SOL       DO
y no voy, y no voy, y no voy, y no voy.
     SOL      DO          SOL      DO
La policía no baila, gobernador no baila,
      SOL      DO
mi profesor no baila,
      SOL      DO
mi cardenal no baila.

PARA ENTENDER TOOOOODA ESTA PARTE DEBEN DE SI O SI ESCUCAHR EL TEMA!

Junto con el solo de teclados, en tres pasos:

1) RE# - FA (3 Veces en Quintas y con ritmo Ska)
2) RE# - RE# - RE# - RE# (En Quintas y con ritmo ska)
3) FA-FA-FA-FA#-FA#-FA# SOL (Todo en 5° Y salen
                             a aprtir de la cuerda 5, NO 6!)

Corte, junto con el solo de saxo:

DO - SOL
DO-DO-DO

Interludio, Primera Guitarra:

e.--------------------------------------
B.--------------------------------------
G.--------------------------------------
D.--------------------------------------
A.-----------33-55-33----33-53----------
E.----33-66-----------66----------------

Interludio, Segunda Guitarra:

SOL - DO (4 Veces, con ritmo ska)


LOS SIMPSONS!!!!!! (Lleva unos tiempos un poco complicados)
Creo q hace algo asi.... DO - FA - FA#
                         DO - FA - FA-FA#

SOL        DO
 Justo hoy que quiero bailar,
SOL        DO
 justo hoy que quiero bailar,
     SOL       DO        SOL       DO
y no voy, y no voy, y no voy, y no voy.
     SOL      DO          SOL      DO
La policía no baila, gobernador no baila,
      SOL      DO
mi profesor no baila,
      SOL      DO
mi cardenal no baila.

(Solo 2 Veces)

e.--------------------------------------
B.--------------------------------------
G.--------------------------------------
D.--------------------------------------
A.-----------33-55-33----33-53----------
E.----33-66-----------66----------------

SOL - DO (4 Veces, con ritmo ska)

FINAL: (EN QUINTAS O CELLIJAS COMO QUIERAN)

Hace un arraste de LA# a DO 4 Veces
En el quinto arraste lo mantiene en DO
Y al final hace LA#-SOL Rapido


BUENO ESO ES TODO, LA CANCION ES UN POCO COMPLICADA POR EL
TEMA DE TIEMPOS PERO DEBEN DE ESCUCAHRLA
SOBRE TODO EN LA PARTE DE LOS SOLO DE TECLADO - SAXO
Y MAS AUN EN LA PARTE DE LOS SIMPSONS
SI YA TIENEN EXPERIENCIA CON LA VIOLA Y MANEJAN MUY BIEN LOS TIEMPOS
NO LES VA A SER NADA JODIDO
BASTA CON CESTARCE A ESCUCHAR LA CANCION
SI NO TIENEN MUCHA EXPERIENCIA
BUENO EMM LA VAN A TENER Q ESCUCHAR MUCHISIMAS
VECES JEJEJE
BUENO NADA AMS SALUDOS
Y BAILEN MUCHO SKA!!!


PD: ESTA VERCION ES DEL CD EN VIVO! EL BAILE OFICIAL DEL 2009
NO SE CONFUNDAN CON LA VERCION EN ESTUDIO
POR ESO, ESTA TIENE UN MONTON DE GILADAS!

            
            
Suggest correction
Creating personal tab
Creating personal tab
You can edit any tab online and save it as your Personal.

You can edit, replace or remove any tab part or add personal notes – all changes will be seen only by you.

Personal tabs can be accessed anytime from any device, even offline.
Learn more »
Give kudos to tab author, rate the tab!
1 2 3 4 5
comments
print report bad tab
guest
Wanna post a correction for this tab? Suggest correction