Oops, an error
Loading. Please wait.

La Lava chords

19 views 1 this week
no commentswrite comment
1 2 3 4 5
3 more votes to show rating
add to favorites
×
Save as Personal and add changes to this tab that will be seen only by you. Learn more ›
×
You can save this tab as Personal to edit and correct it or add notes. All changes will be seen only by you. Learn more »
launch autoscroll
font size
0
reset
transpose
0
reset
display chords
guitar tuner
edit
Autoscroll
slow
fast
+/-
esc
set tempo
stop
Strumming
There is no strumming pattern for this song yet. and get +5 IQ
Riff:
E:------------------------------|
B:------------------------------|
G:------------------------------|
D:-0-0-0------------------------|
A:------------------------------|
E:-------1-1-1--3-3-3-3-3^0-----|

Dm    C        Am
directo a la lava
        Dm       C        Am
mi corazon un volcan en llamas
          Dm C Am              Dm C Am
no puede ser   no me puedo detener

directo a la lava
y no hay tiempo pa'pensar que pasa
B me quemo, B me quemo

Estribillo
 Dm      C     Am
salto y otra vez
quiero ver
            Dm    C
si es que duele como
            Am
la ultima vez

Dm      C       Am
salto y otra vez
                  A# Am
es que no puedo parar


Dm    C       Am
el tiempo es uno
            Dm      C
y el limite no lo puedo
       Am
encontrar aun

cuanto mas, cuanto mas
ya veras, ya veras
dame tiempo para sanar

el barranco es grande
acelera tu sangre
a veces el tiempo esta de tu parte

B necesitas saber
si necesitas correr
si necesitas verte para perder

salto y otra vez
quiero ver
si es que duele como
la ultima vez

salto y otra vez
es que no puedo parar

salto y otra vez
quiero ver
si es que duele como
la ultima vez

salto y otra vez
es que no quiero parar

Dm C X4

E:-----1-5-4-5--5-3-1---1----------------------|
B:-1-3----------------3---3--1-3---------------|
G:-------------------------------0^2-0---------|
D:---------------------------------------------|
A:---------------------------------------------|
E:---------------------------------------------|  X2

ya que no falla no falla mi boca
no se calla estalla y ensaya en tiempo real
es divertido el arte de acomodar palabras
dentro de un mismo grupo y no falla

Riff:
E:-----------12-12-12-12--10-10----------------|
B:-----------12-12-12-12--10-10----------------|
G:-----------12-12-12-12--10-10----------------|
D:---------------------------------------------|
A:---------------------------------------------|
E:--10-8-10------------------------------------|

vertiginosa y exitante es esta tarea mira
como la misma vida como haces caida libre
sin paracaidas como sobrevir a esta jungla
sin transformarse en su jungla

es que nunca se jacta no se vuela mi tanga
por eso tantos jacta comentan lo ojos
ojo por ojo despues te cobras y abracadabra
yo se que tu sabes como es yo se que tu sabes como darle al reves
yo se que es aprendido burlar el tiron y a la misma te mueres por accion

Estribillo:

salto y otra vez
quiero ver
si es que duele como
la ultima vez

salto y otra vez
es que no puedo parar  X2

Dm C X4

E:-----1-5-4-5--5-3-1---1----------|
B:-1-3----------------3---3--------|
G:---------------------------------|
D:---------------------------------|
A:---------------------------------|
E:---------------------------------|  X2

            
            
Suggest correction
Creating personal tab
Creating personal tab
You can edit any tab online and save it as your Personal.

You can edit, replace or remove any tab part or add personal notes – all changes will be seen only by you.

Personal tabs can be accessed anytime from any device, even offline.
Learn more »
Give kudos to tab author, rate the tab!
1 2 3 4 5
comments
print report bad tab
guest
Wanna post a correction for this tab? Suggest correction