Oops, an error
Loading. Please wait.

Luna Loca tab

44 views 1 this week
no commentswrite comment
1 2 3 4 5
3 more votes to show rating
add to favorites
×
Save as Personal and add changes to this tab that will be seen only by you. Learn more ›
×
You can save this tab as Personal to edit and correct it or add notes. All changes will be seen only by you. Learn more »
launch autoscroll
font size
0
reset
how to read this tab
guitar tuner
edit
Autoscroll
slow
fast
+/-
esc
set tempo
stop
INTRO:

e.--------------------------------------
B.--------------------------------------
G.--------------------------------------
D.--------------------------------------
A.-------77--55--33------77--55--33-----
E.----55-------------55-----------------


e.--------------------------------------
B.--------------------------------------
G.--------------------------------------
D.--------------------------------------
A.-------33--22-00------33--22--00------
E.----11------------11------------------

e.--------------------------------------
B.--------------------------------------
G.--------------------------------------
D.--------------------------------------
A.-------55--33--22------55--33--22-----
E.----33-------------33-----------------

e.--------------------------------------
B.--------------------------------------
G.--------------------------------------
D.--------------------------------------
A.-------77--55--33------77--55--33-----
E.----55-------------55-----------------

EL INTRO SE HACE DOS VECES OK?

LAm
Luna loca alumbranos
     FA
Esta ruta nueva que empezo
     SOL
Y al llegar a ese lugar
               LAm
Danos balas de nuevo

LAm
Luna loca embriaganos
     FA
El camino amigo que empezo
     SOL
Y al llegar a ese lugar
              LAm
Danos balas de nuevo

LAm
Todavía brillan tiros,
Calaveras, sueños, gritos
      FA
De la despedida eterna
Tan bonita que me dieras
SOL
Mamita amor tú?
           LAm
La noche elegida

    LAm
Aprendimos con los años
Caminar es lo sagrado
       FA
La esperanza mueve piedras
No volver, dejar las huellas?
       SOL
Cuando coje el animal,
          LAm
Alegra el rebaño!

LAm
Luna loca alumbranos
     FA
Esta ruta nueva que empezo
     SOL
Y al llegar a ese lugar
               LAm
Danos balas de nuevo

LAm
Luna loca embriaganos
     FA
El camino amigo que empezo
     SOL
Y al llegar a ese lugar
              LAm
Danos balas de nuevo


INTRO DE VUELTA PERO ESTA VEZ SE AHCE SOLO UNA VEZ!!


Esta parte la hace medio reggae!

 LAm
Luna me conoces bueno,
    FA
Sin tu luz me pongo malo,
SOL
 Oculto en tu lado oscuro,
  LAm
Busco mi camino nuevo?

VUELVE AL SKA!

    LAm
You know me sad
You know me bad
    FA
You want me smash
But they never stop?
       SOL
Yo solo sé,
                   LAm  LA#
La esquinas que anduve!

PUNK TODO EN QUINTAS!!!

DO5                           SOL#5
 LUNA DAME NUEVA FUERZA PARA ANDAR
TODA LA VIDA ME EMPUJARON SIEMPRE AL LLEGAR
SOL5                                   LA5     LA#5
 Y A CREER QUE ESTE VIAJE ERA SOLO Y DESIERTO?

DO5                              SOL#5
 EL SECRETO DEL CAMINO ESTA EN ANDAR,
LO QUE EL VIAJE TE QUITA ES?
                   SOL5
LO QUE EL VIAJE TE DA!                  LAm5
TIENES ESPINAS, TAMBIEN TIENES REMEDIO!....

VUELVE AL SKA!!

LAm
Luna loca alumbranos
     FA
Esta ruta nueva que empezo
     SOL
Y al llegar a ese lugar
               LAm
Danos balas de nuevo

LAm
Luna loca embriaganos
     FA
El camino amigo que empezo
     SOL
Y al llegar a ese lugar
              LAm
Danos balas de nuevo

Para esta parte en la q dice muchas veces luna loca
pueden hacer los acordes con ritmo de ska obvio
o hacer el intro

LAm
LUNA LOCA,
FA
LUNA LOCA!
SOL
LUNA LOCA,
LAm
LUNA LOCA!

Final: LA#5-LA#5-LA#5-SOL5-SOL#5-LA5 (Todos lso acordes son rapidos)

BUENO ESE ES EL TEMA ESTA BIEN LA VERDAD Q ESTA BIEN LO UNICO
Q TIENE Q ESCUCHAR LA CANCION PARA ACOMODAR LOS TIEMPOS
Y EL FINAL ESCUCHENLO PORQ YO YA LES PASE LOS TONOS
UDS ACOMODENLOS

BUENO NADA MAS ESO ES TODO EL TEMA ESTA MUY BUENO ESCUCHENLO
SALUDOS PARA TODOS CHE!!!

            
            
Suggest correction
Creating personal tab
Creating personal tab
You can edit any tab online and save it as your Personal.

You can edit, replace or remove any tab part or add personal notes – all changes will be seen only by you.

Personal tabs can be accessed anytime from any device, even offline.
Learn more »
Give kudos to tab author, rate the tab!
1 2 3 4 5
comments
print report bad tab
guest
Wanna post a correction for this tab? Suggest correction