Oops, an error
Loading. Please wait.

Myself tab

4,179 views 1 this week
3 commentsread comments
1 2 3 4 5
x 5
add to favorites
×
Save as Personal and add changes to this tab that will be seen only by you. Learn more ›
×
You can save this tab as Personal to edit and correct it or add notes. All changes will be seen only by you. Learn more »
launch autoscroll
font size
0
reset
how to read this tab
guitar tuner
edit
Autoscroll
slow
fast
+/-
esc
set tempo
stop
Author
Difficulty
Myself
Kara's Flowers
The Fourth World
Tabbed by: Danielle Weitzman

(Standard EADGBe tuning)

Intro/Verse 1

-----0--------------------------------------------0--------| 
-----0--------------------------------------------0--------|
----------------------0------0------0-----0--------------2-| 
--------------------2------2------1-----1--------------1---| 
---2----------2---4------4------2-----2--------2-----2-----| 
-0------0—2\4--------------------------------0-------------| (x3)

Chorus

-00000000-----------------------------------| 
-00000000-----------------------------------|
-11111111-----------------------------------| 
-22222222----------------------------4444---| 
-22222222--66666666--77777777--4444--2222---| 
-00000000--44444444--55555555--2222---------|

-00000000-----------------------------------| 
-00000000-----------------------------------|
-11111111-----------------------------------| 
-22222222-----------------------------------| 
-22222222--66666666--77777777--44444444-----| 
-00000000--44444444--55555555--22222222-----| (x2)

Play E three times before 2nd verse

Verse 2

-----0--------------------------------------------0--------| 
-----0--------------------------------------------0--------|
----------------------0------0------0-----0--------------2-| 
--------------------2------2------1-----1--------------1---| 
---2----------2---4------4------2-----2--------2-----2-----| 
-0------0—2\4--------------------------------0-------------| (x3)

Chorus

-00000000-----------------------------------| 
-00000000-----------------------------------|
-11111111-----------------------------------| 
-22222222----------------------------4444---| 
-22222222--66666666--77777777--4444--2222---| 
-00000000--44444444--55555555--2222---------|

-00000000-----------------------------------| 
-00000000-----------------------------------|
-11111111-----------------------------------| 
-22222222-----------------------------------| 
-22222222--66666666--77777777--44444444-----| 
-00000000--44444444--55555555--22222222-----|

-00000000-------------------------------000----| 
-00000000-------------------------------000----|
-11111111-------------------------------111----| 
-22222222-------------------------------222----| 
-22222222--66666666--77777777--44444444-222----| 
-00000000--44444444--55555555--22222222-000----|


Breakdown


-------------------------------------------------| 
-12-------12--------12--------12--------12-------|
----12-13-----12-13-----12-13-----12-13----------| 
-------------------------------------------------| 
-------------------------------------------------| 
-------------------------------------------------| (x2)

Solo

------------------------------------------------9—12p9------| 
-11b—11~----11b---11---9\6~---9-11-9----------9--------12p9-|
---------10------------------------------11b----------------| 
------------------------------------------------------------|
------------------------------------------------------------| 
------------------------------------------------------------|

---------------------------------------------------------9------|
-------------------------------------------------------9--------| 
-11b—11p9----9---11b-------11b—11~--11~--9~--11-9—11b-----------|
----------11----------10----------------------------------------| 
----------------------------------------------------------------|
----------------------------------------------------------------| 

Chorus

-00000000-----------------------------------| 
-00000000-----------------------------------|
-11111111-----------------------------------| 
-22222222----------------------------4444---| 
-22222222--66666666--77777777--4444--2222---| 
-00000000--44444444--55555555--2222---------|

-00000000-----------------------------------| 
-00000000-----------------------------------|
-11111111-----------------------------------| 
-22222222-----------------------------------| 
-22222222--66666666--77777777--44444444-----| 
-00000000--44444444--55555555--22222222-----|

Outro

-----0--------------------------------------------0-----------000| 
-----0--------------------------------------------0-----------000|
----------------------0------0------0-----0--------------2----111| 
--------------------2------2------1-----1--------------1------222| 
---2----------2---4------4------2-----2--------2-----2--------222| 
-0------0—2\4--------------------------------0----------------000|

            
            
Suggest correction
Creating personal tab
Creating personal tab
You can edit any tab online and save it as your Personal.

You can edit, replace or remove any tab part or add personal notes – all changes will be seen only by you.

Personal tabs can be accessed anytime from any device, even offline.
Learn more »
comments
print report bad tab
3 comments total.
+1 reply
GeekInThePink 184 Jul 27, 2006 04:52 PM

The solo sounds a bit off, but I suck at solos so don't listen to me. Otherwise, it's perfect! This is a good song. I kept thinking to myself "I should learn this song!" all day. Thanks for putting it up!

0 reply
KermittheFrog99 31 Jan 28, 2014 12:40 PM

I have chords for the CHORUS:*=bar at the 4th fret **=bar at 7th fret

C*
But if I'm sitting here lonely
G#*
with no one to hold me
A (bar this chord) F#
at lease I'll have my health
A (bar) E** C*
I'm trying to control myself

+1 reply
bobbylight150 1,303 Mar 04, 2014 03:41 PM

Yeah, the solo sounds off.

guest
You may want to rate the tab now too:
select rating
Wanna post a correction for this tab? Suggest correction