Oops, an error
Loading. Please wait.

Stolen Roses chords

version 2
version 2

Whole song

  • The chords which are presented here are mainly bas... Show more
79 views 3 this week
no commentswrite comment
1 2 3 4 5
1 last vote to show rating
add to favorites
×
Save as Personal and add changes to this tab that will be seen only by you. Learn more ›
×
You can save this tab as Personal to edit and correct it or add notes. All changes will be seen only by you. Learn more »
launch autoscroll
font size
0
reset
transpose
0
reset
simplify chords
display chords
guitar tuner
edit
Autoscroll
slow
fast
+/-
esc
set tempo
stop
Author
Difficulty
About this tab version
The chords which are presented here are mainly based on the studio recording, but since Karen Elson tends to end the song in a slightly different manner when playing live the alternate finale is also included (instead of the bridge part played once more at the end the last two verses of the chorus are repeated). Was this info helpful? Yes No
Strumming
There is no strumming pattern for this song yet. and get +5 IQ
Stolen Roses

[intro]

         Am          G      Am       Am     E       Am
e------|-----------|---------------|--------------|------------|
B------|------5--5-|-0--1p0------0-|-1--3p1-0-----|------------|
G----0-|-2--2------|--------2--2---|----------2-0-|-2--------0-|
D--2---|-----------|---------------|--------------|--------2---|
A------|-----------|---------------|--------------|------------|
E------|-----------|---------------|--------------|------------|

  Am          G      Am       Am     E       Am
e-----------|---------------|--------------|------------|
B------5--5-|-0--1p0------0-|-1--3p1-0-----|------------|
G-2--2------|--------2--2---|----------2-0-|-2----------|
D-----------|---------------|--------------|------------|
A-----------|---------------|--------------|------------|
E-----------|---------------|--------------|------------|

[Verse]
      Am                   Fmaj7   Am
There once was a time when I was a girl
     Am       G          Am
That darkness hung in my sky
      Am           Fmaj7         Am
I was old before I learned to be young
      Am          G              Am
Stone cold 'til I learned how to cry

[Chorus]
        C                            G
And the weeds in the ground had grew up through my skin
    C                        E
Foresaking a lonesome girl's heart
        Am                  Fmaj7 Am      
I would go where the stolen roses grow
      Am         E         Am
To forget that I had fell apart

[Solo 1]

         Am          G      Am       Am     E       Am   
e------|-----------|---------------|--------------|------------|
B------|------5--5-|-0--1p0------0-|-1--3p1-0-----|------5-3-1-|
G------|-2--2------|--------2--2---|----------2-0-|-2----------|
D----2-|-----------|---------------|--------------|------------|
A------|-----------|---------------|--------------|------------|
E------|-----------|---------------|--------------|------------|

  N.C.
e-----------|-----------|
B-----------|-----------|
G-2---------|-2---------|
D-------2---|-------2---|
A-----------|-----------|
E-----------|-----------|  

[Verse]
    Am                  Fmaj7          Am
The thorns on the roses cut through my skin
    Am            G             Am
The vultures flew down and they pecked
     Am                       Fmaj7 Am
What lay on the surface was a tiny crack
    Am          G        E
And below was a gigantic wreck

[Chorus]
     C                       G
So I held my head down and I dealt with the blows
   C                     E
In hope that I'd soon be free to
Am                  Fmaj7 Am
Go where the stolen roses grow
      Am          E       Am
To forget all the bad memories

[Solo 2]

  Dm           Dm             Am           Am
e-8s10-------|------12s10-8-|-10s12---12-|----------8-|
B------------|--------------|------------|-------10---|
G------------|--------------|------------|------------|
D------------|--------------|------------|------------|
A------------|--------------|------------|------------|
E------------|--------------|------------|------------|

  Dm           Dm             E            E7        
e-8s10--10---|------12s10-8-|-10s12------|------------|
B------------|--------------|------------|-10s9-------|
G------------|--------------|------------|------------|
D------------|--------------|------------|------------|
A------------|--------------|------------|------------|
E------------|--------------|------------|------------|


[Bridge]
        Am                 
I would go where the stolen
N.C.
roses grow

         Am            Am
e------|-------------|-------------|
B------|------1------|-------------|
G----0-|-2--2---2--2-|-0h2--2--0h2-|
D--2---|-------------|-------------|
A------|-------------|-------------|
E------|-------------|-------------|

           N.C.                       
I would go where the stolen roses grow

         Am            Am
e------|-------------|-------------|
B------|------1------|-------------|
G----0-|-2--2---2--2-|-2-0-0-------|
D--2---|-------------|-------0---0-|
A------|-------------|---------3---|
E------|-------------|-------------|

[Chorus]
        C                            G
And the weeds in the ground had grew up through my skin
    C                        E
Foresaking a lonesome girl's heart
        Am                  Fmaj7 Am      
I would go where the stolen roses grow
      Am         E         Am
To forget that I had fell apart


! Studio version finale !

[Bridge]
                N.C.                   
I would go where the stolen roses grow

         N.C.
e------|-----------|---------------|
B------|------5--5-|-0--1p0--------|
G----0-|-2--2------|--------2------|
D--2---|-----------|---------------|
A------|-----------|---------------|
E------|-----------|---------------|

        N.C.                   
I would go where the stolen roses grow

         N.C.
e------|-----------|---------------|
B------|------5--5-|-0--1p0--------|
G----0-|-2--2------|--------2------|
D--2---|-----------|---------------|
A------|-----------|---------------|
E------|-----------|---------------|

        N.C.                   
I would go where the stolen roses grow


! Live version finale !

        Am                  Fmaj7 Am      
I would go where the stolen roses grow
      Am         E         Am
To forget that I had fell apart

            
            
Suggest correction
Creating personal tab
Creating personal tab
You can edit any tab online and save it as your Personal.

You can edit, replace or remove any tab part or add personal notes – all changes will be seen only by you.

Personal tabs can be accessed anytime from any device, even offline.
Learn more »
Give kudos to tab author, rate the tab!
1 2 3 4 5
comments
print report bad tab
guest
You may want to rate the tab now too:
select rating
Wanna post a correction for this tab? Suggest correction