Oops, an error
Loading. Please wait.

Moon Song Tab

version 1
version 1

Whole song

12,480 views 135 this week
no commentswrite comment
1 2 3 4 5
x 7
add to favorites
launch autoscroll
font size
0
reset
how to read this tab
guitar tuner
Autoscroll
slow
fast
+/-
esc
set tempo
stop
Help us to improve Ultimate-Guitar.com Take our survey!
×
Difficulty
novice
Moon Song - Karen O
Tabbed by: Elijah
E-mail: insanelytamed@gmail.com
Tuning: standard

(This is my first time making a tab, so please be patient with me.  This song
is played on ukulele in the movie "Her," but I translated it to guitar.  Any
feedback is appreciated)

[Intro]
e|-------8---8---8----|---5-------7----|8-------8-------|
B|-----8---8---8---8--|-6---6---8------|8-------6-------|
G|----9-9---9---9---9-|7-7---7-7-7-----|5-------5-------|
D|--------------------|----------------|----------------|
A|--------------------|----------------|----------------|
E|--------------------|----------------|----------------|

[Verse]
              "I'm  lying  on   the moon."      "My dear I'll be  there
e|---8---8---8----|---5-------7----|---8---8---8----|---5-------7----|
B|-8---8---8---8--|-6---6---8---8--|-8---8---8---8--|-6---6---8---8--|
G|9-9---9---9---9-|7-7---7-7-7---7-|9-9---9---9---9-|7-7---7-7-7---7-|
D|----------------|----------------|----------------|----------------|
A|----------------|----------------|----------------|----------------|
E|----------------|----------------|----------------|----------------|

  soon."    "It's a quiet  starry  place." "Time's..swallowed up  in space..a million miles...."
e|---8---8---8----|---5-------7----|---8---8---8----|---5-------7----|8-------8-------|
B|-8---8---8---8--|-6---6---8---8--|-8---8---8---8--|-6---6---8---8--|8-------6-------|
G|9-9---9---9---9-|7-7---7-7-7---7-|9-9---9---9---9-|7-7---7-7-7---7-|5-------5-------|
D|----------------|----------------|----------------|----------------|----------------|
A|----------------|----------------|----------------|----------------|----------------|
E|----------------|----------------|----------------|----------------|----------------|

This repeats throughout the verses of the song, until the last verse which ends:

 "away"
e|--8--|
B|--8--|
G|--9--|
D|-----|
A|-----|
E|-----|

[Lyrics]
I'm lying on the moon
My dear, I'll be there soon
It's a quiet starry place
Time's we're swallowed up
In space we're here a million miles away

There's things I wish I knew
There's no thing I'd keep from you
It's a dark and shiny place
But with you my dear
I'm safe and we're a million miles away

We're lying on the moon
It's a perfect afternoon
Your shadow follows me all day
Making sure that I'm
Okay and we're a million miles away
Suggest correction
comments
print report bad tab
guest
You may want to rate the tab now too:
select rating
Wanna post a correction for this tab? Suggest correction