Oops, an error
Loading. Please wait.

The Cause Of Christ Tab

100 views 12 this week
no commentswrite comment
1 2 3 4 5
1 last vote to show rating
add to favorites
launch autoscroll
font size
0
reset
how to read this tab
guitar tuner
Autoscroll
slow
fast
+/-
esc
set tempo
stop
Help us to improve Ultimate-Guitar.com Take our survey!
×
Author
Difficulty
novice
[Intro]
e|-0-----0-----0-----|-0--0--0--|-2-----2-----2----|-2--2-----|
B|-2-----2-----2-----|-0--0--0--|-3-----3-----3----|-2--2-----|
G|-2-----2-----2-----|-1--1--1--|-2-----2-----2----|-2--2-----|
D|-2-----2-----2-----|-2--2--2--|-4-----4-----4----|-2--2-----|
A|-0-----0-----0-----|-2--2--2--|-2-----2-----2----|-4--4---0-|
E|-x-----x-----x-----|-0--0--0--|-x-----x-----x----|-2--2-----|

[Verse 1]
e|-0-----------------|-0------|-2--------------------|-2------|
B|-2-----------------|-0------|-3--------------------|-2------|
G|-2-----------------|-1------|-2--------------------|-2------|
D|-2--2--2-----------|-2------|-4--------------------|-2------|
A|-0--------4--2--0--|-2---0--|-2-----4--4--2--2--0--|-4---0--|
E|-x-----------------|-0------|-x--------------------|-2------|

e|-0-----------------|-0------|-2-------------0-----|--0---------|
B|-2-----------------|-0------|-3-------------2-----|--3---------|
G|-2-----------------|-1------|-2-------------2-----|--2----2--1-|
D|-2--2--2-----------|-2------|-4-------------2-----|--0---------|
A|-0--------4--2--0--|-2---0--|-2----4--4--2--4--0--|--x---------|
E|-x-----------------|-0------|-x-------------------|--x---------|

[Chorus]
e|-0-------|-0---------|-2------|-0---0------|-0---------|-0---------|-2----|
B|-3-------|-2---------|-2------|-0---2------|-3---0-----|-2------2--|-2--0-|
G|-2-------|-2---2--1--|-2------|-1---2---1--|-2------2--|-2---------|-2----|
D|-0---2---|-2---------|-4--2---|-2---2------|-0---------|-2---2-----|-4----|
A|-x-------|-0---------|-4------|-2---4------|-x---------|-0---------|-4----|
E|-x-------|-x---------|-2------|-0---x------|-x---------|-x---------|-2----|

e|-0---0------|-0------|-0---------|-2-----|-0--0---------|-0------|-0--------|
B|-0---2------|-3------|-2---------|-2-----|-0--2---------|-3---0--|-2------0-|
G|-1---2---1--|-2------|-2---2--1--|-2-----|-1--2---1--2--|-2------|-2--------|
D|-2---2------|-0---2--|-2---------|-4--2--|-2--2---------|-0------|-2---2----|
A|-2---4------|-x------|-0---------|-4-----|-2--4---------|-x------|-0--------|
E|-0---x------|-x------|-x---------|-2-----|-0--x---------|-x------|-x--------|

e|-2--0--|---0----|
B|-2--0--|---2----|
G|-2--1--|---2----|
D|-4--2--|---2----|
A|-4--2--|---0----|
E|-2--0--|---x----|

[Solo Chords]
e|--0--0--0--|--2---2---2---|--2--2--2--|--------|
B|--0--0--0--|--3---3---3---|--2--2--2--|--------|
G|--1--1--1--|--2---2---2---|--2--2--2--|--------|
D|--2--2--2--|--4---4---4---|--2--2--2--|--------|
A|--2--2--2--|--2---2---2---|--4--4--4--|--------|
E|--0--0--0--|--x---x---x---|--2--2--2--|--------|

[Verse 2]
e|-0-----------------|-0------|-2------------------|-2------|
B|-2-----------------|-0------|-3------------------|-2------|
G|-2-----------------|-1------|-2------------------|-2------|
D|-2--2--2-----------|-2------|-4------------------|-2------|
A|-0--------4--2--0--|-2---0--|-2---4--4--2--2--0--|-4---0--|
E|-x-----------------|-0------|-x------------------|-2------|

e|-0-----------------|-0--------|-2-----------0-----|--0--------|
B|-2-----------------|-0--------|-3--3--3--0--2-----|--3--------|
G|-2-----------------|-1-----2--|-2-----------2--2--|--2--2--1--|
D|-2--2--2--4--2-----|-2--------|-4-----------2-----|--0--------|
A|-0--------------4--|-2--2-----|-2-----------4-----|--x--------|
E|-x-----------------|-0--------|-x-----------x-----|--x--------|

[Chorus]
e|-0-------|-0---------|-2------|-0---0------|-0---------|-0---------|-2-----|
B|-3-------|-2---------|-2------|-0---2------|-3---0-----|-2------2--|-2--0--|
G|-2-------|-2---2--1--|-2------|-1---2---1--|-2------2--|-2---------|-2-----|
D|-0---2---|-2---------|-4--2---|-2---2------|-0---------|-2---2-----|-4-----|
A|-x-------|-0---------|-4------|-2---4------|-x---------|-0---------|-4-----|
E|-x-------|-x---------|-2------|-0---x------|-x---------|-x---------|-2-----|

e|-0---0------|-0------|-0---------|-2-----|-0--0---------|-0------|-0---------|
B|-0---2------|-3------|-2---------|-2-----|-0--2---------|-3---0--|-2------0--|
G|-1---2---1--|-2------|-2---2--1--|-2-----|-1--2---1--2--|-2------|-2---------|
D|-2---2------|-0---2--|-2---------|-4--2--|-2--2---------|-0------|-2---2-----|
A|-2---4------|-x------|-0---------|-4-----|-2--4---------|-x------|-0---------|
E|-0---x------|-x------|-x---------|-2-----|-0--x---------|-x------|-x---------|

e|-2--0--|---0---|
B|-2--0--|---2---|
G|-2--1--|---2---|
D|-4--2--|---2---|
A|-4--2--|---0---|
E|-2--0--|---x---|

[Bridge]
e|-2--------------|-2--------------|-0--------------|---0---|
B|-3--------------|-2--------------|-2--------------|---0---|
G|-2--------------|-2--------------|-2--------------|---1---|
D|-4--------------|-4--------------|-2--------------|---2---|
A|-2--2--4--2--0--|-4--2--0--0--4--|-0--2--0--0--2--|---2---|
E|-x--------------|-2--------------|-x--------------|---0---|

e|-2--------------|-2--------------|-0--------------|---0--|
B|-3--------------|-2--------------|-2--------------|---0--|
G|-2--------------|-2--------------|-2--------------|---1--|
D|-4--------------|-4--------------|-2--------------|---2--|
A|-2--2--4--2--0--|-4--2--0--0--4--|-0--2--0--0--2--|---2--|
E|-x--------------|-2--------------|-x--------------|---0--|

e|-2--------------|-2--------------|-0--------------|---0---|
B|-3--------------|-2--------------|-2--------------|---0---|
G|-2--------------|-2--------------|-2--------------|---1---|
D|-4--------------|-4--------------|-2--------------|---2---|
A|-2--2--4--2--0--|-4--2--0--0--4--|-0--2--0--0--2--|---2---|
E|-x--------------|-2--------------|-x--------------|---0---|

e|-2--------------|-2--------------|-0--------------|---0---|
B|-3--------------|-2--------------|-2--------------|---0---|
G|-2--------------|-2--------------|-2--------------|---1---|
D|-4--------------|-4--------------|-2--------------|---2---|
A|-2--2--4--2--0--|-4--2--0--0--4--|-0--2--0--0--2--|---2---|
E|-x--------------|-2--------------|-x--------------|---0---|

e|-2--------------|-2--------------|-0--------------|---0---|
B|-3--0-----0--2--|-2--0--------2--|-2--0--------0--|---0---|
G|-2-----2--------|-2-----2--2-----|-2-----2--2-----|---1---|
D|-4--------------|-4--------------|-2--------------|---2---|
A|-2--------------|-4--------------|-0--------------|---2---|
E|-x--------------|-2--------------|-x--------------|---0---|

e|-2--------------|-2--------------|-0--------------|---0--------|
B|-3--0-----0--2--|-2--0--------2--|-2--0--------0--|---0--------|
G|-2-----2--------|-2-----2--2-----|-2-----2--2-----|---1--2--1--|
D|-4--------------|-2--------------|-2--------------|---2--------|
A|-2--------------|-4--------------|-0--------------|---2--------|
E|-x--------------|-2--------------|-x--------------|---0--------|

[Chorus 2]
e|-0-------|-0---------|-2------|-0---0------|-0---------|-0---------|-2-----|
B|-3-------|-2---------|-2------|-0---2------|-3---0-----|-2------2--|-2--0--|
G|-2-------|-2---2--1--|-2------|-1---2---1--|-2------2--|-2---------|-2-----|
D|-0---2---|-2---------|-4--2---|-2---2------|-0---------|-2---2-----|-4-----|
A|-x-------|-0---------|-4------|-2---4------|-x---------|-0---------|-4-----|
E|-x-------|-x---------|-2------|-0---x------|-x---------|-x---------|-2-----|

e|-0---0------|-0------|-0---------|-2-----|-0--0---------|-0------|-0---------|
B|-0---2------|-3------|-2---------|-2-----|-0--2---------|-3---0--|-2------0--|
G|-1---2---1--|-2------|-2---2--1--|-2-----|-1--2---1--2--|-2------|-2---------|
D|-2---2------|-0---2--|-2---------|-4--2--|-2--2---------|-0------|-2---2-----|
A|-2---4------|-x------|-0---------|-4-----|-2--4---------|-x------|-0---------|
E|-0---x------|-x------|-x---------|-2-----|-0--x---------|-x------|-x---------|

e|-2--0--|-2--0--------|-0--0--|-0--------|-2--0--|--0--|--0--|-2-|
B|-2--0--|-2--2--------|-3-----|-2-----2--|-2--0--|--2--|--0--|-3-|
G|-2--1--|-2--2--1--2--|-2-----|-2--------|-2--1--|--2--|--1--|-2-|
D|-4--2--|-2--2--------|-0-----|-2--2-----|-4--2--|--2--|--2--|-4-|
A|-4--2--|-4--4--------|-x-----|-0--------|-4--2--|--0--|--2--|-2-|
E|-2--0--|-2--x--------|-x-----|-x--------|-2--0--|--x--|--0--|-x-|

[Solo Chords]
e|--0--0--0--|--2----2----2----|--2------|
B|--0--0--0--|--3----3----3----|--2------|
G|--1--1--1--|--2----2----2----|--2------|
D|--2--2--2--|--4----4----4----|--2------|
A|--2--2--2--|--2----2----2----|--4--0---|
E|--0--0--0--|--x----x----x----|--2------|

[Verse 3]
e|-0-----------------|-0------|-2-------------------|-2------|
B|-2-----------------|-0------|-3-------------------|-2------|
G|-2-----------------|-1------|-2-------------------|-2------|
D|-2--2--2-----------|-2------|-4-------------------|-2------|
A|-0--------4--2--0--|-2---0--|-2----4--4--2--2--0--|-4---0--|
E|-x-----------------|-0------|-x-------------------|-2------|

e|-0------------------|-0-----------|-2-------------0-----|---0---|
B|-2------------------|-0-----------|-3-------------2-----|---3---|
G|-2------------------|-1-----------|-2-------------2-----|---2---|
D|-2---2--2-----------|-2-----------|-4-------------2-----|---0---|
A|-0---------4--2--0--|-2--0--2--4--|-2----4--4--2--4--0--|---x---|
E|-x------------------|-0-----------|-x-------------------|---x---|

************************************

| x   Dead note
| 
Suggest correction
Give kudos to tab author, rate the tab!
1 2 3 4 5
comments
print report bad tab
guest
You may want to rate the tab now too:
select rating
Wanna post a correction for this tab? Suggest correction