Oops, an error
Loading. Please wait.

Nothing Left To Lose Tab

70 views 15 this week
no commentswrite comment
1 2 3 4 5
2 more votes to show rating
add to favorites
launch autoscroll
font size
0
reset
how to read this tab
guitar tuner
Autoscroll
slow
fast
+/-
esc
set tempo
stop
Help us to improve Ultimate-Guitar.com Take our survey!
×
Author
Difficulty
Tuning
novice
D A D G B E
Intro/Verse/Chorus

e|---------------------------------------------------------------------------|
B|---------------------------------------------------------------------------|
G|---------------------------------------------------------------------------|   7x
D|--0---0---0---0---0---0---0---0---0---0---0---0---0---0---0---0------------|
A|--------------------------------2---2---2---2------------------------------|
D|0---0---0---0---5---5---5---5-------------------5---5---5---5--------------|



Pre-Chorus

e|---------------------------------------------------------------------------|
B|---------------------------------------------------------------------------|
G|---------------------------------------------------------------------------|   1x
D|--0---0---0---0---0---0---0---0---0---0---0---0---0---0---0---0------------|
A|--------------------------------2---2---2---2---0---0---0---0--------------|
D|0---0---0---0---5---5---5---5----------------------------------------------|


Intro/Verse/Chorus

e|---------------------------------------------------------------------------|
B|---------------------------------------------------------------------------|
G|---------------------------------------------------------------------------|   11x
D|--0---0---0---0---0---0---0---0---0---0---0---0---0---0---0---0------------|
A|--------------------------------2---2---2---2------------------------------|
D|0---0---0---0---5---5---5---5-------------------5---5---5---5--------------|


Pre-Chorus

e|---------------------------------------------------------------------------|
B|---------------------------------------------------------------------------|
G|---------------------------------------------------------------------------|   1x
D|--0---0---0---0---0---0---0---0---0---0---0---0---0---0---0---0------------|
A|--------------------------------2---2---2---2---0---0---0---0--------------|
D|0---0---0---0---5---5---5---5----------------------------------------------|


Intro/Verse/Chorus

e|---------------------------------------------------------------------------|
B|---------------------------------------------------------------------------|
G|---------------------------------------------------------------------------|  
D|--0---0---0---0---0---0---0---0---0---0---0---0---0---0---0---0------------|
A|--------------------------------2---2---2---2------------------------------|
D|0---0---0---0---5---5---5---5-------------------5---5---5---5--------------|

Suggest correction
Give kudos to tab author, rate the tab!
1 2 3 4 5
comments
print report bad tab
guest
You may want to rate the tab now too:
select rating
Wanna post a correction for this tab? Suggest correction