Oops, an error
Loading. Please wait.

L Amour Chords

9,596 views 36 this week
no commentswrite comment
1 2 3 4 5
x 6
add to favorites
launch autoscroll
font size
0
reset
transpose
0
reset
simplify chords
display chords
guitar tuner
Autoscroll
slow
fast
+/-
esc
set tempo
stop
Help us to improve Ultimate-Guitar.com Take our survey!
×
Author
C   [0 3 2 0 1 0]
Em7 [0 2 2 0 3 3]
Am  [x 0 2 2 1 0]
Em  [0 2 2 0 0 0] 
G   [3 2 0 0 3 3]

Intro
C Em7 Am Em7

Em                     G
On te dit ta route est tracée d'avance
C
alors tu gardes ce que tu penses pour toi
        Em
pile ou face ça serait sans importance 
G
laisse décider la chance
C
cesse de demander pourquoi
               Em                       G
alors, on peut dessiner des mots d'amour du bout des lèvres
         C
on peut siffler comme un oiseau quand le soleil se lève
        Em                              G
on peut laisser ces mots crever dans sa bouche
                    C                        
et pleurer comme un bébé quand le soleil s'couche

mini riff
e---------------------------------------------------------------|
B---------------------------------------------------------------|
G-------5-7-9-7-5-----------------------------------------------|
D-----5---------------------------------------------------------|
A---------------------------------------------------------------|
E---------------------------------------------------------------|

C     G                              Am                             G
Aaaah aaaaah, dis moi qu'on est 2 ma belle et qu'il y a ta voix qui m'apelle 
                              C     G
et dis moi qu'est ce qu'on va faire 
                           Am     G
on fait l'amour on fait la guerre 

C Em7 Am Em7 (2X)

Em                     G
on te dit que tout est noir et tout est blanc
          C
qu'on est pour ou qu'on est contre et qui faudra choisir un camp
Em      G           C
ah non, allons voir s'il nous est permis de garder l'espoir
Em                                    G
on peut dire à celle qu'on aime qu'on l'aime et qu'elle est belle
C
recommencer tous les matin quand le soleil s'lève
Em                                G
on peut viser tous les coeurs et ne jamais faire mouche
C
et rentrer seul quand le soleil s'couche 

mini riff
e---------------------------------------------------------------|
B---------------------------------------------------------------|
G-------5-7-9-7-5-----------------------------------------------|
D-----5---------------------------------------------------------|
A---------------------------------------------------------------|
E---------------------------------------------------------------|

C     G                              Am                             G
Aaaah aaaaah, dis moi qu'on est 2 ma belle et qu'il y a ta voix qui m'apelle 
                              C     G
et dis moi qu'est ce qu'on va faire 
                           Am     G
on fait l'amour on fait la guerre 

(2x)

C Em7 Am Em7

C
on peut coller nos deux corps 
G
et déposer les armes
C
dépasser la marée montée encore
G
jusqu'au cîme des arbres

C     G                              Am                             G
Aaaah aaaaah, dis moi qu'on est 2 ma belle et qu'il y a ta voix qui m'apelle 
                              C     G
et dis moi qu'est ce qu'on va faire 
                           Am     G
on fait l'amour on fait la guerre 
(2x)

C Em7 Am Em7 (2x)

Cette version est simplifiée, elle n'est pas super fidèle à l'originale.
http://karimouellet.ca/
Suggest correction
comments
print report bad tab
guest
You may want to rate the tab now too:
select rating
Wanna post a correction for this tab? Suggest correction