Oops, an error
Loading. Please wait.

El Hombre De La Basura tab

version 1
version 1

Whole song

67 views 1 this week
no commentswrite comment
1 2 3 4 5
3 more votes to show rating
add to favorites
×
Save as Personal and add changes to this tab that will be seen only by you. Learn more ›
×
You can save this tab as Personal to edit and correct it or add notes. All changes will be seen only by you. Learn more »
launch autoscroll
font size
0
reset
how to read this tab
guitar tuner
edit
Autoscroll
slow
fast
+/-
esc
set tempo
stop
Karma Sudaca
El Hombre de la Basura


Aqui les va la tablatura completa
de Hombre de la Basura
Disfrutenla


Intro :

1|-------------|
2|-------------|
3|-7-5-7-9-7-5-|
4|-5-3-5-7-5-3-|
5|-------------|
6|-------------|

Riff1
1|-5--5-5--5--5-5-|
2|-5--5-6--6--6-5-|
3|-5--5-7--7--7-5-|
4|-5--5-7--7--7-5-|
5|-5--5-5--5--7-5-|
6|----------------|

Riff2
1|----------------------|
2|----------------------|
3|-5-7-7-5-7-9-7-5--7-5-|
4|-3-5-5-3-5-7-5-3--5-3-|
5|----------------------|
6|----------------------|

Arpegio de SOL

1|--3-----|
2|---3-3--|
3|----4-4-|
4|--------|
5|--------|
6|-3------|

Intro x2

Riff1
Perdido tras su laberinto
fingiendo ser mortal

Intro
ehh ehh ehhhh ehhhh

Riff1
Se cae pero fiel a su instinto
se vuelve a levantar

Intro
ehh ehh ehhhh ehhhh

A5                      C5
Soga al cuello una vez mas
                   G (Arpegio)
sopla el viento y raspando la olla
vuelve a suplicar
A5                 C5
tres deseos y uno mas...
  G
¡llévenlo de acá!

Riff2

Intro X2

Riff1
Su viejo le marco el camino
su hijo va a zafar

Intro
ehh ehh ehhhh ehhhh


Riff1
El hombre de la basura
se anima otra vez a soñar

Intro
ehh ehh ehhhh ehhhh


A5                      C5
Soga al cuello una vez mas
                   G (ARPEGIO)
sopla el viento y raspando la olla
            A5
vuelve a suplicar
               C5
tres deseos y uno mas...
             G
llévenlo de acá

SOLO:
      A                       C
1|-17--17-15-14b15p14----|---------------------|
2|--------------------17-|-13-12--10-12-13-15--|
3|-----------------------|---------------------|
4|-----------------------|---------------------|
5|-----------------------|---------------------|
6|-----------------------|---------------------|
          C                      A
1|--------------------|-------232--------------|
2|--------------------|---235-----532----------|
3|-11--11-9--7-9-7----|-35------------532-5F-2F|
4|-----------------11-|------------------------|
5|--------------------|------------------------|
6|--------------------|------------------------|


A                                       C
Sentado tras las sombras ve a su hijo marchar
A                                         C
lagrimas en su sonrisa fuego helado en su piel
A                               C
de repente queda solo y siente que...
 D          E                            F#m
Tras el sol, que niega una caricia a su piel
D      E         F#m
quedo... viciándose


PD: todos los acordes en quinta
(ej: A5 C5) se tocan con Cuerdas graves.

Mando un saludo para todos los fans de Karma Sudaca
y para todo San Miguel de Tucuma, a San Martin (el equipo)
y mi colegio (Gabriela Mistral).

Martin Arias Paz
Prohibida su Fotocopia XD
Suggest correction
Creating personal tab
Creating personal tab
You can edit any tab online and save it as your Personal.

You can edit, replace or remove any tab part or add personal notes – all changes will be seen only by you.

Personal tabs can be accessed anytime from any device, even offline.
Learn more »
Give kudos to tab author, rate the tab!
1 2 3 4 5
comments
print report bad tab
guest
Wanna post a correction for this tab? Suggest correction