Oops, an error
Loading. Please wait.

El Hombre De La Basura tab

version 2
version 2

Whole song

16 views 1 this week
no commentswrite comment
1 2 3 4 5
3 more votes to show rating
add to favorites
×
Save as Personal and add changes to this tab that will be seen only by you. Learn more ›
×
You can save this tab as Personal to edit and correct it or add notes. All changes will be seen only by you. Learn more »
launch autoscroll
font size
0
reset
how to read this tab
guitar tuner
edit
Autoscroll
slow
fast
+/-
esc
set tempo
stop
Intro:

e/-2--0--2--3--2--0---
B/-3--3--3--3--3--3---
G/-2--2--2--2--2--2--- 2 veces.
D/-0--0--0--0--0--0---
A/--------------------
E/--------------------

      D        E5    D
E5  Perdido tras su laberinto
    E5        D       E5 D
    Fingiendo ser mortal ehhhhhhhhh / intro 2 veces
       D    E5      D
E5  Se cae pero fiel a su instinto
    E5   D    E5    D         (Intro 2 veces)
    Se vuelve y se vuelve, a levantar

    A5                     C5
    Soga al cuello una ves mas
                            G5 (Hace el arpegio [1)]
    Sopla el viento y raspando la olla
                  A5                    C5
    Vuelve a suplicar tres deseos y uno mas
                G5
    Llévenlo de acá  (Intro 1 ves y el punteo [2] y de
                      nuevo intro 2 veces)

    Su viejo le marco el camino
    Su hijo, su hijo va a zafar ahhhhhhhhhhhh

    El hombre de la basura
    Se anima otra ves, a soñar /
Intro pero final distinto (3)


    Soga al cuello una ves mas
    Sopla el viento y raspando la olla
    Vuelve a suplicar tres deseos y uno mas
    Llévenlo de acá / Solo (4)

 C#(solo hace vibrar la nota)
    Sentado tras las sombras
                    A(solo hace vibrar la nota)
    ve a su hijo marchar
    Lagrimas en su sonrisa
                       F#5(acá toca el acorde)
    Fuego helado en su piel
    De repente queda solo y siente que


              E(6)
D(5)  Tras el SOL
           F#(7)
      Que niega una caricia a su piel

      Quedo, viciándose /
(repite varias veces después hace
                           esos acordes en 5)


(Igual que estrofa anterior)
       Ehhhhhh, ehhhh, ehhhh
                       F#5 G#5 A5 C#5
       Ehhhhhh, ehhhh, eh  eh  eh eh   D5
 (sigue todo igual)


     Final: F5 (G5 A5 C5 A5 G5) F#5
               (Esto lo pueden)
               (hacer tocando )
               (solamente LA  )
               (nota          )


Estos son los arpegios,
 los acordes que usa en
algunas partes y los solos
que va haciendo durante el tema.


(1)e/--------------------------------------3-----3--------
   B/--------------------------------------0-----0--------
   G/-0------------------------------------0-----0--------
   D/-0-Esto es una forma de hacer el G5------------------
   A/-----------------------------------------------------
   E/-3---------------------------------------3-----------


(2)En realidad esto es igual que
 la intro, pero esta bueno hacerlo
 así, igual les pongo las dos opciones.
 La primera es esta:

   e/---------------------
   B/-7-7-7-7--5-5--7--8--7--5--7--5--5-
   G/-5-5-5-5--5-5--5--5--5--5--5--5--5-
   D/---------------------
   A/---------------------
   E/---------------------
    La segunda:

   e/-2-2-2-2--0-0--2--3--2--0--2--0-0--
   B/-3-3-3-3--3-3--3--2--3--2--3--3-3--
   G/-2-2-2-2--2-2--2--3--2--3--2--2-2--
   D/-0-0-0-0--0-0--0--0--0--0--0--0-0--
   A/-----------------------------------
   E/-----------------------------------


(3)Durante la intro cambia y hace esto
 junto con la seguida de acordes:

   e/-2-2--0-0--2-2-2-2-2--------------
   B/-3-3--3-3--3-3-3-3-3--------------
   G/-2-2--2-2--2-2-2-2-2--------------
   D/----------------------2---5---7---
   A/----------------------2---5---7---
   E/----------------------0---3---5---


(4)Bueno, este es el solo:

   e/-17v--17-15-15-15h17-14-14v-------14-12-12-10-12-14v--
   B/-----------------------------14v----------------------
   G/------------------------------------------------------
   D/------------------------------------------------------
   A/------------------------------------------------------
   E/------------------------------------------------------

   e/-------------------------------------
   B/-7v--10-9-7-7h9-7----------------------------
   G/------------------9-7v--------------------
   D/------------------------------------------------------
   A/------------------------10h12-varias veces rápido-----
   E/------------------------------10h12-varias veces rapido

   Seguido a eso es cuando hace vibrar en C#,
 luego en A y después toca el acorde F#5.


(5)Este es el D que uso en esta parte,
lo pueden hacer tocando la sexta como no,
 pero creo que Fabián lo hace sin tocar
la sexta, les pongo las dos formas:

LA primera:  E/-5-      LA segunda: E/-5--
             B/-5-                  B/-5--
             G/-7-                  G/-7--
             D/-7-                  D/-7--
             A/-5-                  A/-5--
             E/-x-                  E/-5--


(6)Lo mismo que con el D:
LA primera:  E/-7-      LA segunda: E/-7--
             B/-7-                  B/-7--
             G/-9-                  G/-9--
             D/-9-                  D/-9--
             A/-7-                  A/-7--
             E/-x-                  E/-7-


(7)Lo mismo que con el D y el E:

LA primera:  E/-9-      LA segunda:  E/-9--
             B/-9-                   B/-9--
             G/-11-                  G/-11-
             D/-11-                  D/-11-
             A/-9-                   A/-9--
             E/-x-                   E/-9--


Esto es todo el tema,
cualquier duda manden un mail.
Aguante Karma Sudaca!!!!

            
            
Suggest correction
Creating personal tab
Creating personal tab
You can edit any tab online and save it as your Personal.

You can edit, replace or remove any tab part or add personal notes – all changes will be seen only by you.

Personal tabs can be accessed anytime from any device, even offline.
Learn more »
Give kudos to tab author, rate the tab!
1 2 3 4 5
comments
print report bad tab
guest
Wanna post a correction for this tab? Suggest correction