Oops, an error
Loading. Please wait.

En El Aire tab

43 views 1 this week
no commentswrite comment
1 2 3 4 5
3 more votes to show rating
add to favorites
×
Save as Personal and add changes to this tab that will be seen only by you. Learn more ›
×
You can save this tab as Personal to edit and correct it or add notes. All changes will be seen only by you. Learn more »
launch autoscroll
font size
0
reset
how to read this tab
guitar tuner
edit
Autoscroll
slow
fast
+/-
esc
set tempo
stop
En el aire
Intro: E A B  X2    A B E

RIFF
E-----------
B-----------
G-----------
D-----------
A-----------
E-0-2-3-----

RIFF G   D     C            G
     la vista fija en la pared
RIFF G   D         C
     colgando de algun cuadro
RIFF G   D     C           G
     los ojos rojos por creer
RIFF G      D        C
     que olvidarte era facil

  G7      C         B  B  E
E--1--------0-------2--2--0-
B----0--------1-----4--4--0-
G------0--------0---4--4--1-
D-------------------4--4--2-
A----------3--------2--2--2-
E-3-----------------2--2--0--


C#m   G#m      C#m   G#m
   la noche ya me sangro
C#m  G#m            B
   comienza otra mañana
C#m   G#m      C#m    G#m
   buscando ojos en el sol
C#m    G#m           B
   siempre encuentro tu cara

estribillo

       E   A     B
y digo..hea  hea  te voy a buscar
E   A    B
 hea  hea  en el aire en el aire
E   A    B
 Hea  hea  te voy a buscar
      A   B       E
no puedo mas sin ti


RIFF G   D        C      G
     buceando en mi tempestad
RIFF    G         D       C
     halle un destino para darte
RIFF G  D       C       G
     y toco el aire sin mirar
RIFF G      D   C
     y me enredo entre tus partes


  G7      C          B  B  E
E--1-1--------0------2--2--0-
B------0--------1----4--4--0-
G----0--------0---0--4--4--1-
D--------------------4--4--2-
A----------3---------2--2--2-
E-3------------------2--2--0-


C#m  G#m        C#m     G#m
   dos pibes en un balcon
C#m   G#m       B
   faceando de mañana
C#m   G#m           C#m       G#m
   me miran creen saber quien soy
C#m  G#m        B
   y ya no entiendo nada


estribillo

       E   A     B
y digo..hea  hea  te voy a buscar
E   A    B
 hea  hea  en el aire en el aire
E   A    B
 Hea  hea  te voy a buscar
      A   B       E
no puedo mas sin ti


C5          C5  D5      D5
  se encienden las luces y estas ahí
C5      C5      D5   G-----7VVVVV---
  comienza este show
C5      C5  D5  D5   E5
  robando plegarias al corazon

he he he he hea

solo

E--------------------------------------
B--------------------------------------
G-/9VV-8VV---------8/9VV-8VV--/9VV-8VV-
D----------6-7-9-6---------------------
A--------------------------------------
E--------------------------------------

E--------------------------------------
B-----------------12b(14)r-10/9VV-10p9-
G---6-8-9/11VVV------------------------
D-9------------------------------------
A--------------------------------------
E--------------------------------------

E--------------------------------------
B-------12b(14)r-10/9VV-12b(14)r-10/9VV
G-11p9---------------------------------
D--------------------------------------
A--------------------------------------
E--------------------------------------

E-----------------------------------------
B-9h10p9---------12-10p9----9-------------
G--------11p9h11---------11---11-9----11-9VV
D----------------------------------11-----
A-----------------------------------------
E-----------------------------------------
                            Y digo...


E   A     B
 hea  hea  te voy a buscar
E   A    B
 hea  hea  en el aire en el aire
E   A    B
 Hea  hea  te voy a buscar
      A   B       E
no puedo mas sin ti ho ho ho ho


F#   A     B
  hea  hea  te estoy diciendo
F#  A                B
Pasa ya no puedo mas y ya no es facil
                F#   A
Ya no puedo,ya no puedo, ya no puedo
B               A    B         E
Ya no puedo,no puedo mas sin ti

  G7      C         B     E
E--1--------0---------2---0-
B----0--------1-----4---4-0-
G------0--------0---4-----1-
D-------------------4-----2-
A----------3--------2-----2-
E-3-----------------2-----0-

che loco aguante karma y espero q les guste esta
transcripcion, es la tercera q mando de karma.
suena bastante bien si sugieren alguna correccion o
tienen alguna duda les dejo mi correo pablo_13_7@

            
            
Suggest correction
Creating personal tab
Creating personal tab
You can edit any tab online and save it as your Personal.

You can edit, replace or remove any tab part or add personal notes – all changes will be seen only by you.

Personal tabs can be accessed anytime from any device, even offline.
Learn more »
Give kudos to tab author, rate the tab!
1 2 3 4 5
comments
print report bad tab
guest
Wanna post a correction for this tab? Suggest correction