Oops, an error
Loading. Please wait.

Transparente tab

version 1
version 1

Whole song

16 views 1 this week
no commentswrite comment
1 2 3 4 5
3 more votes to show rating
add to favorites
×
Save as Personal and add changes to this tab that will be seen only by you. Learn more ›
×
You can save this tab as Personal to edit and correct it or add notes. All changes will be seen only by you. Learn more »
launch autoscroll
font size
0
reset
how to read this tab
guitar tuner
edit
Autoscroll
slow
fast
+/-
esc
set tempo
stop
Intro
E------------------------------------------
A------------------------------------------
D---0-5-0--7-5-4-5-4-0---------------------  x 3
G------------------------------------------
B------------------------------------------
E------------------------------------------

E------------------------------------------
A------------------------------------------
D------------------------------------------  x 2
G----7--------------7----------------------
B--------10-8-7-8-7------------------------
E------------------------------------------

E------------------------------------------
A------------------------------------------
D------------------------------------------
G----7--------------9----------------------
B--------10-8-7-8-7------------------------
E------------------------------------------


SI   LA SI            FA# SOL FA# SOL
Soy              tu imagen  impura

                  SI  LA SI   FA# SOL FA# SOL
ya no decides mas por mi ya nadie me apura
Ya no decides mas...

SI                    SOL
Quién puede vivir sin amor
SI                    SOL
quién puede morir sin perdón

 SI   LA SI            FA# SOL FA# SOL
Soy          tu eterna saliva
y ya no hablás mas por mi ya nadie me obliga

SI                    SOL
Quién puede jugar a ser vos
SI                    SOL
quien puede fingir que es Dios

estribillo
 SOL          LA   SOL           LA
No puedes tocarme, no puedes mirarme

   RE DO# SI LA SOL FA#
no puedo ver el sol


intro

E------------------------------------------
A------------------------------------------
D------------------------------------------  x 2
G----7--------------7----------------------
B--------10-8-7-8-7------------------------
E------------------------------------------

E------------------------------------------
A------------------------------------------
D------------------------------------------
G----7--------------9----------------------
B--------10-8-7-8-7------------------------
E------------------------------------------


SI   LA SI     FA# SOL FA# SOL
Soy        tu única guarida
                SI   LA SI    FA# SOL FA# SOL
y ya no habitas mas en mi ya nadie me abriga

Ya no decides más...

B5                     G5
Quién puede jugar al amor
B5                        G5
Quien puede fingir el perdón


estribillo

SOLO
E------------------------------------------
A------------------------------------------
D---------------------7--7---7-9-----------
G-----6-5-6-5--5-6-5-------6---------------
B--7---------------------------------------
E------------------------------------------

E------------------------------------------
A------------------------------------------
D------------------------------------------
G------------------------------------------
B------------------------------------------
E--10-12-10--9-10-9--7-9-7--5-7-5----------

E------------------------------------------
A------------------------------------------
D------------------------------------------
G-------9------9-------9----9-------9-7----
B--8-7----7------7-8-7---7----7-8-7--------
E------------------------------------------

E------------------------------------------
A------------------------------------------
D------------------------------------------
G-7-9-7----------7--9---------7------------
B---------10-8-7-------10-8-7--------------
E------------------------------------------

E------------------------------------------
A------------------------------------------
D------------------------------------------
G------------------------------------------
B------------------------------------------
E--12-12-12--14-14-14--15-15-15--17-17-17--

 SOL5                LA5
Saco el demonio que hay en mí
  MI5    RE5    DO5   RE5
No puedo evitar ser así


SI5 LA5 SI5      FA#5   SOL5 FA#5 SOL5
Soy               tu ultima salida

FA#5
Y estoy a punto de partir
                    SOL5 FA#5 SOL5
Te llevo conmigo...

Ya no decides más
SI5                        SOL5
Quien puede vivir sin ser vos
SI5                         SOL5
Quien puede vivir sin un dios

estribillo
RE5                 SI5
  no puedo ver el sol,
                SOL5                   LA5
No puedo ver el sol, no puedo ver el sol

y ya no, ya no puedo ver el sol

ya no puedo ver el sol

no puedo ver el sol

no puedo ver el sol

            
            
Suggest correction
Creating personal tab
Creating personal tab
You can edit any tab online and save it as your Personal.

You can edit, replace or remove any tab part or add personal notes – all changes will be seen only by you.

Personal tabs can be accessed anytime from any device, even offline.
Learn more »
Give kudos to tab author, rate the tab!
1 2 3 4 5
comments
print report bad tab
guest
Wanna post a correction for this tab? Suggest correction