Oops, an error
Loading. Please wait.

Transparente tab

version 2
version 2

Whole song

10 views 1 this week
no commentswrite comment
1 2 3 4 5
3 more votes to show rating
add to favorites
×
Save as Personal and add changes to this tab that will be seen only by you. Learn more ›
×
You can save this tab as Personal to edit and correct it or add notes. All changes will be seen only by you. Learn more »
launch autoscroll
font size
0
reset
how to read this tab
guitar tuner
edit
Autoscroll
slow
fast
+/-
esc
set tempo
stop
Transparente


Intro

 Esto hace la segunda guitarra
E/-------------------------------------------
B/-------------------------------------------
G/-----12-11-----14-12-11h12p11-----12-11----
D/--12-12-12-12--12-12-12--------12-12-12-12-
A/--12-------12------------------12-------12-
E/-------------------------------------------

E/-------------------------------------------------
B/-------------------------------------------------
G/--14--12--11h12p11-----12-11-----14-12-11h12p11--
D/--12--12--12--------12-12-12-12--12-12-12--------
A/--------------------12-------12------------------
E/-------------------------------------------------

E/-------------------------------------
B/-------------------------------------
G/-----12-11-----14-14-14-12-12-11-11--
D/--12-12-12-12--12-12-12-12-12-12-12--
A/--12-------12------------------------
E/-------------------------------------

En esta parte entra la primera guitarra (sobre esta base)
E/--------------------------------------------     /
B/--------------------------------------------     /
G/-----12-11-----14-12--11h12p11-----12-11----     /
D/--12-12-12-12--12-12--12--------12-12-12-12-     /
A/--12-------12-------------------12-------12-     /
E/--------------------------------------------     /

E/----------------------------------------------   /
B/----------------------------------------------   /
G/--14-12--11h12p11----12-11-----14-12-11h12p11-   /
D/--12-12--12-------12-12-12-12--12-12-12-------   /
A/------------------12-------12-----------------   /
E/----------------------------------------------   /

Esto hace la primera guitarra sobre la base anterior

E/----------------------------------------------
B/----------------------------------------------
G/----------7/14vv-12vv-11h12p11----------------
D/-/12-12vv----------------------12vv--12vv-----
A/----------------------------------------------
E/----------------------------------------------

E/----------------------------------------------
B/----------------------------------------------
G/--7/14vv-12vv-11h12p11-----------7/14vv-12vv--
D/-----------------------12vv-12vv--------------
A/----------------------------------------------
E/----------------------------------------------


E/----------------------------------------------
B/----------------------8p7---------------------
G/--11h12p11---------------9p7h9p7--------------
D/-----------12h14-14vv-----------9p7h9p7-------
A/---------------------------------------9p7h9--
E/----------------------------------------------
                        -esta-parte-es-muy-rápida-
Fin intro


B5 A5 A5 B5 B5    F#5 F#5     G5 G5  F#5 F#5  G5 G5
Soy               tu imagen  impura

              B5 A5 A5 B5 B5   F#5 F#5     G5 G5 F#5 F#5 G5 G5
Ya no decides más por mí       ya nadie me apura

Ya no decides más...

B5                     G5
Quién puede vivir sin amor
B5                     G5    riff D/-----------------------
Quién puede morir sin perdón      A/-------5---------------
                                  E/-0-3-5---3-5-----------


B5 A5 A5 B5 B5    F#5 F#5     G5 G5  F#5 F#5 G5 G5
Soy               tu eterna  saliva

               B5 A5 A5 B5 B5   F#5 F#5      G5 G5 F#5 F#5 G5 G5
Y ya no hablás mas por mí       ya nadie me obliga

Ya no decides más...

B5                      G5
Quién puede jugar a ser vos
B5                        G5
Quien puede fingir que es Dios


Estribillo


G5             A5  G5             A5
No puedes tocarme, no puedes mirarme, no

D5    C#5  B5  A5  G5 G5 G5 G5 G5 G5 G5 G5 A5 A5 A5 A5
No puedo  ver el sol


Base segunda guitarra
E/-------------------------------------------
B/-------------------------------------------
G/----12-11-----14-12-11h12p11-----12-11-----
D/-12-12-12-12--12-12-12--------12-12-12-12--
A/-12-------12------------------12-------12--
E/-------------------------------------------

E/--------------------------------------------
B/--------------------------------------------
G/-14-12-11h12p11----12-11-----14-12-11h12p11-
D/-12-12-12-------12-12-12-12--12-12-12-------
A/----------------12-------12-----------------
E/--------------------------------------------

Esto hace la primera guitarra sobre la base anterior

E/-----------------------------------------
B/-----------------------------------------
G/----------7/14vv-12vv-11h12p11-----------
D/-/12-12vv----------------------12vv-12vv-
A/-----------------------------------------
E/-----------------------------------------

E/----------------------------------------------
B/----------------------------------------------
G/-7/14vv-12vv-11h12p11-----------7/14vv-12vv---
D/----------------------12vv-12vv---------------
A/----------------------------------------------
E/----------------------------------------------

E/---------------------------------------------
B/-----------------------8p7--------------------
G/-11h12p11-----------------9p7h9p7-------------
D/----------12h-14-14vv------------9p7h9p7------
A/----------------------------------------9p7h9-
E/----------------------------------------------
                        -esta-parte-es-muy-rápida-


B5 A5 A5 B5 B5     F#5 F#5    G5 G5  F#5 F#5 G5 G5
Soy                tu única guarida
                B5 A5 A5 B5 B5   F#5 F#5     G5 G5 F#5 F#5 G5 G5
Y ya no habitas mas en mí        ya nadie me abriga

Ya no decides más...

B5                     G5
Quién puede jugar al amor
B5                        G5
Quien puede fingir el perdón


Estribillo


G5             A5  G5             A5
No puedes tocarme, no puedes mirarme, no

D5    C#5  B5  A5  G5 G5 G5 G5 G5 G5 G5 G5 A5 A5 A5 A5 A5 A5 A5
No puedo  ver el sol


SOLO:

E/--------------------------------------------------------------
B/-----------------------------------------15h17p15vv-14h15p14vv
G/-9b(11)r-9-7/6-6h7p6--4/6/4-2-4/6-----------------------------
D/----------------------------------7-7/9vv------------------
Á/--------------------------------------------------------------
E/--------------------------------------------------------------


E/------------------------------------------------------------
B/-12h14p12vv-10h12p10vv-7h8p7-5-7--5-7-7h8p7-5-7--5-7-8h10p8-
G/------------------------------------------------------------
D/------------------------------------------------------------
Á/------------------------------------------------------------
E/-----------------------------------------------------------


E/-----------------------------------------------------------
B/-7-------7-8h10p8-7-----5-7-7h8p7--5-7-5-7-7h8p7--5-7-----
G/---7vv-7------------7vv---------------------------------7vv-
D/------------------------------------------------------------
Á/------------------------------------------------------------
E/-----------------------------------------------------------


E/-12-12-12-12-14-14-14-14-15-15-15-15-17-17-17-17-
B/-15b15b15b15b17b17b17b17b18b18b18b18b20b20b20b20b-
G/-------------------------------------------------
D/--------------------------------------------------
Á/------------------------------------------------
E--------------------------------------------------

 G5                A5
Saco el demonio que hay en mí
  E5    D5    C5   D5
No puedo evitar ser así


B5 A5 A5 B5 B5     F#5 F#5   G5 G5  F#5 F#5
Soy               tu ultima salida

F#5 F#5 F#5 F#5 F#5 F#5   riff G/-4-2---4
Y estoy a punto de partir      D/----4-2--termina el riff con B5
                    G5 F#5 G5 G5
Te llevo conmigo...


Ya no decides más
B5                        G5
Quien puede vivir sin ser vos
B5                         G5
Quien puede vivir sin un dios


Estribillo
G5             A5  G5             A5
No puedes tocarme, no puedes mirarme, no

D5    C#5  B5  A5  D5                 B5
No puedo  ver el sol, no puedo ver el sol,
                G5                   A
No puedo ver el sol, no puedo ver el sol
      riff 1                   riff 1
y ya no, ya no puedo ver el sol
                      riff 1
ya no puedo ver el sol
             riff 2     riff 3
noooo puedo veeeerr el soooooooooooooool

no puedo veeeeeeeeeer el sooooooooooooool


Riff 1

E/--------------------
B/--------------------
G/-----12--12p11------
D/--12-12--12---------
A/--12----------------
E/--------------------


Riff 2

E/-----7-5---10-9----9---
B/---5-----7------10-----
G/-----------------------   X 2
D/-----------------------
A/-----------------------
E/-----------------------

Riff 3

E/---------------------------------------
B/-7h8p7--5-7--5-7-7h8p7-5-7--5-7-8h10p8-
G/---------------------------------------
D/----------------------------------------
Á/---------------------------------------
E/---------------------------------------


E/----------------------------------------------------------
B/-7-------7-8h10p8-7-----5-7-7h8p7--5-7--5-7-7h8p7--5-7----
G/---7vv-7------------7vv--------------------------------7vv
D/----------------------------------------------------------
Á/----------------------------------------------------------
E/----------------------------------------------------------


E/---------------------
B/---------------------
G/---7/9---------------
D/--------------------
A/--------------------
E/---------------------

eso fue todo espero que les guste
por cualquier duda mi correo pablo_13_7@

AgUaNtE  KARMA Y El CUERVO (central norte)

            
            
Suggest correction
Creating personal tab
Creating personal tab
You can edit any tab online and save it as your Personal.

You can edit, replace or remove any tab part or add personal notes – all changes will be seen only by you.

Personal tabs can be accessed anytime from any device, even offline.
Learn more »
Give kudos to tab author, rate the tab!
1 2 3 4 5
comments
print report bad tab
guest
Wanna post a correction for this tab? Suggest correction