Oops, an error
Loading. Please wait.

Change bass

version 1
version 1

Whole song

Interactive

822 views 1 this week
no commentswrite comment
1 2 3 4 5
2 more votes to show rating
add to favorites
×
Save as Personal and add changes to this tab that will be seen only by you. Learn more ›
×
You can save this tab as Personal to edit and correct it or add notes. All changes will be seen only by you. Learn more »
launch autoscroll
font size
0
reset
guitar tuner
edit
Autoscroll
slow
fast
+/-
esc
set tempo
stop
Author
Difficulty
This is my take on Karnivool's "Change (Part 2)" from Sound Awake tabbed on 6-
string bass in standard tuning. Don't worry if you're using a 4 or 5 string, it's still doable.

Change
1:38
C|--------------------------------------------------------------------------|
G|--------------------------------------------------------------------------|
D|9-9--9--9--9--9--9--97p-9--9--9--9--9--9--9--97p-9-9--9--9--9--9--9--9--9-|
A|---79h----------------------------------------------79h-------------------|
E|--------------------------------------------------------------------------|
B|--------------------------------------------------------------------------|

C|----------------------|
G|----------------------|
D|-9--9--9--9--9--7-----|
A|-------------------9--|
E|----------------------|
B|----------------------|

1:51
C|------------------------------------------------------------------------|
G|------------------------------------------------------------------------|
D|------------------------------------------------------------------------|
A|------------------------------------------------------------------------|
E|------------------------------------------------------------------------| 
B|0--0--0--0--0--0--0--03-0--0--0--0--0--0--0--03-0--0--0--0--0--0--0--0--| 

C|------------------------------------------------------------------------|
G|------------------------------------------------------------------------|
D|------------------------------------------------------------------------|
A|------------------------------------------------------------------------|
E|---------------------------------------------------------------------0--| 
B|0--0--0--0--0--0--0--0--0--0--0--0--0--0--0--0--0--0--0--0--0--0--0-----| 

C|-----------------------------------------------------------------------|
G|-----------------------------------------------------------------------|
D|-----------------------------------------------------------------------|
A|-----------------------------------------------------------------------|
E|2--2--2--2--2--2--2--2--2--2--2--2--2--2--2--0-------------------------| 
B|-----------------------------------------------3--3--3--3--3--3--3--3--| 

C|-------------------------------------------------------------------------|
G|-------------------------------------------------------------------------|
D|-------------------------------------------------------------------------|
A|----------------------------------------------------------------------4--|
E|-------------------------------------------------------------------------|
B|5--5--5--5--5--5--5--53-0--0--0--0--0--0--0--03--0--0--0--0--0--0--0-----| 

C|---------------------------------------------------------------------|
G|---------------------------------------------------------------------|
D|---------------------------------------------------------------------|
A|5--------------------------------------------------------------------|
E|---------------------35----------------------0--2--2-02--2-02--2-02--| 
B|---0--0--0--0--0--0-----0--0--0--0--0--0--0--------------------------| 

C|---------------------------------------------------------------------|
G|---------------------------------------------------------------------|
D|---------------------------------------------------------------------|
A|---------------------------------------------------------------------|
E|2-02--2-02--2--0--5-----5-----------------------5-----------------0--| 
B|---------------------3-----0--0--0--0--0--0253-----0--0--0--0--0-----| 

C|---------------------------------------------------------------------|
G|---------------------------------------------------------------------|
D|---------------------------------------2-----------------------------|
A|-----------------------------------------45--------------------------|
E|2--2--2--2--2--2--2--2--2--2--2--2--2xx----xx------------------------| 
B|---------------------------------------------3--3--3--3--3--3--3--3--| 

C|------------------------------------------------------------------------|
G|------------------------------------------------------------------------|
D|------------------------------2-4---------2-4---------------------------|
A|------------------------------------------------------------------------|
E|------------------------3--3------3-3--3------532--2--2--2--2--2--2--2--| 
B|5--5--5--5--5--5--5--5--------------------------------------------------| 

C|-----------------------------------------|
G|-----------------------------------------|
D|-----------------------------------------|
A|-----------------------------------------|
E|-----------------------------------------| 
B|3--3--3--3--3--3--3--3--5--5--5--5--5----| 

3:08
C|-------------------------------------------------------------------|
G|-------------------------------------------------------------------|
D|-------------------------------------------------------------------|
A|-------------------------------------------19h---------------------|
E|19h-17p----------19h-17p----------19h-17p-----------15h-10p--12----| 
B|-------------------------------------------------------------------| 

C| ---------------------------------------------- |
G| -------------------------------------------12- |
D|o-------14---------14---------14--------1214---o|
A| ---------------------------------------------- |
E|o12--12-----12--12-----12--12-----12--12-------o| 
B| ---------------------------------------------- | 

C|-------------------------------------------------------------------|
G|-------------------------------------------------------------------|
D|-------------------------------------------------------------------|
A|------------------------------3------------------------------------|
E|------------23--------------35----------------3----------------33--|
B|5--5-5--5--5--3-5--5-5--5--5----5--5-5--5--535--5--5-5--5-5-535--3-|

C|-------------------------------------------------------------------|
G|-------------------------------------------------------------------|
D|-------------------------------------------------------------------|
A|------------------------------3------------------------------------|
E|------------23--------------35----------------3--------------------|
B|5--5-5--5--5--3-5--5-5--5--5----5--5-5--5--535--5--5-5-3-3-3333333\|




4:20
C|----------------------------------------------------------------|
G|12---11-----------------------------12---11---------------------|
D|14---12---14------14---12---14------14---12---14------14---12---|
A|----------12------15--------12----------------12------15--------|
E|12---10-----------------------------12---10---------------------|
B|----------10------13--------10----------------10------13--------|

C|-------------------------|
G|-------------------------|
D|-------------------------|
A|-------------------------|
E|-------------------------|
B|10--10--10-10-10101010-10|


C| ---------------------------------------------- |
G| ---------------------------------------------- |
D|o-------------------------------------------12-o|
A| -------14---------14---------14--------1214--- |
E|o----------------------------------------------o| X3
B| 12--12-----12--12-----12--12-----12--12------- | 

C|-----------------------------------------------------------------|
G|-----------------------------------------------------------------|
D|-----------------------------------------------------------------|
A|-----------------------------------------------------------------|
E|10--10--12--12--12--12--15--15--14--14--14-----------------------|
B|--------------------------------------------15-------------------|

C|-------------------------------------------------------------------------|
G|-------------------------------------------------------------------------|
D|-------------------------------------------------------------------------|
A|-------------------------------------------------------------------------|
E|-------------------------------------------------------------------------|
B|12--------13\-------12-------12-----10-10-12--------12---------0---------|


C|--------------------------------------------------------------------------|
G|--------------------------------------------------------------------------|
D|--------------------------------------------------------------------------|
A|--------------------------------------------------------------------------|
E|3--5--2-----------------------------------------5--7---7----7--5-5-7---7--|
B|---------3--0-----3--0-----3--0-----3--0--3--5------0-0---0--0------0-0---|


C|--------------------------------------------------------------------------|
G|--------------------------------------------------------------------------|
D|--------------------------------------------------------------------------|
A|----------------------------------------5-----x5--------------------------|
E|-7---5-5-7---7--------5-5-7--7--------------------------------------------|
B|0-0-0------0--xx577x57----------xx57xx57---------5-5-5-5------------------|


C|-----------------------------------------------------|
G|-----------------------------------------------------|
D|-----------------------------------------------------|
A|----------------------------------12--14----12--14-\-|
E|-----------------------------------------------------|
B|8-8-7--7------3--3------5--5-------------------------|

6:07		     (18 on G and 13 on C are the same note)
C|----16------------------13----------16--------------------------|
G|------------16--16--18----------------------16--16--18--16--18--|
D|17------17--17--16--16--16--16--17------17--17--16--16--16--16--|
A|----------------------------------------------------------------|
E|----------------------------------------------------------------|
B|----------------------------------------------------------------|

C|----16------------------------------16---------------------|
G|------------16--16--15--16--18------------------16--18-----|
D|17------17--17--16--16--16--16--17------17--17--16--16-----|
A|-----------------------------------------------------------|
E|-----------------------------------------------------------|
B|--------------------------------------------------------7--|

C| ------------------------------------------------- |
G| ------------------------------------------------- |
D|o------------------------------------------7------o|
A| -----7-9-9------7-9-9------7-9-9------7-9--9----- |
E|o---------------------9----------9----------------o|
B| 8--8x------8--8x------7--7x------7--7x------8--8x |

C|------------------------------------------------------------------|
G|--------------------7---------------------7---------------------7-|
D|-----7-9-9------7-9--------7-9-9------7-9--------7-9-9------7-9---|
A|----------9-------------------------------------------9-----------|
E|------------------------------------------------------------------|
B|8--8x------8--8x------7--7x------7--7x------8--8x------8--8x------|

6:53                        (PLAY 3 TIMES)
C|------------------------| --------16-18h16p------ |--------------|
G|------------------------| 16--16-----------16---- |16--16--14----|
D|------------------------|o-----------------------o|--------------|
A|------------------------| ----------------------- |--------------|
E|------------------9--9--|o-----------------------o|--------------|
B|7--7--2--2--7--7--------| ----------------------- |--------------|

(semiquavers in ¾)
  1     +     2     +     3     +     1     +     2     +     3     +
C|------------------------------------------------------------------------|
G|16-16-16-16-16-16-16-16-16-16-16-16-16-16-16-16-16-16-16-16-16-16-16-16-|
D|------------------------------------------------------------------------|
A|------------------------------------------------------------------------|
E|------------------------------------------------------------------------|
B|------------------------------------------------------------------------|
  1     +     2     +     3     +     1     +     2     +     3     +
C|------------------------------------------------------------------------|
G|14-14-14-14-14-14-14-14-14-14-14-14-14-14-14-14-14-14-14-14-14-14-14-14-|
D|------------------------------------------------------------------------|
A|------------------------------------------------------------------------|
E|------------------------------------------------------------------------|
B|------------------------------------------------------------------------|

  1     +     2     +     3     +     1     +     2     +     3     +
C|------------------------------------------------------------------------|
G|18-18-18-18-18-18-18-18-18-18-18-18-18-18-18-18-18-18-18-18-18-18-18-18-|
D|------------------------------------------------------------------------|
A|------------------------------------------------------------------------|
E|------------------------------------------------------------------------|
B|------------------------------------------------------------------------|

  1     +     2     +     3     +     1     +     2     +     3     +
C|------------------------------------------------------------------------|
G|16-16-16-16-16-16-16-16-16-16-16-16-16-16-16-16-16-16-16-16-16-16-16-16-|
D|------------------------------------------------------------------------|
A|------------------------------------------------------------------------|
E|------------------------------------------------------------------------|
B|------------------------------------------------------------------------|

  1     +     2     +     3     +     1     +     2     +     3     +
C|------------------------------------------------------------------------|
G|16-16-16-16-16-16-16-16-16-16-16-16-16-16-16-16-16-16-16-16-16-16-16-16-|
D|------------------------------------------------------------------------|
A|------------------------------------------------------------------------|
E|------------------------------------------------------------------------|
B|------------------------------------------------------------------------|
  1     +     2     +     3     +     1     +     2     +     3     +
C|------------------------------------------------------------------------|
G|14-14-14-14-14-14-14-14-14-14-14-14-14-14-14-14-14-14-14-14-14-14-14-14-|
D|------------------------------------------------------------------------|
A|------------------------------------------------------------------------|
E|------------------------------------------------------------------------|
B|------------------------------------------------------------------------|

  1     +     2     +     3     +     1     +     2     +     3     +
C|------------------------------------------------------------------------|
G|18-18-18-18-18-18-18-18-18-18-18-18-18-18-18-18-18-18-18-18-18-18-18-18-|
D|------------------------------------------------------------------------|
A|------------------------------------------------------------------------|
E|------------------------------------------------------------------------|
B|------------------------------------------------------------------------|

  1     +     2     +     3     +     1     +     2     +     3     +
C|------------------------------------------------16-16-16-18-18-18-------|
G|16-16-16-16-16-16-16-16-16-16-16-16-16-16-16-16-------------------16-16-|
D|------------------------------------------------------------------------|
A|------------------------------------------------------------------------|
E|------------------------------------------------------------------------|
B|------------------------------------------------------------------------|

  1     +     2     +     3     +     1     +     2     +     3     +
C|------------------------------------------------------------------------|
G|------------------------------------------------------------------------|
D|------------------------------------------------------------------------|
A|------------------------------------------------------------------------|
E|15-15-15-15-15-15-15-15-15-15-15-15-15-15-15-15-15-15-15-15-15-15-15-15-|
B|------------------------------------------------------------------------|

  1     +     2     +     3     +     1     +     2     +     3     +
C|------------------------------------------------------------------------|
G|------------------------------------------------------------------------|
D|------------------------------------------------------------------------|
A|------------------------------------------------------------------------|
E|14-14-14-14-14-14-14-14-14-14-14-14-14-14-14-14-14-14-14-14-14-14-14-14-|
B|------------------------------------------------------------------------|

  1     +     2     +     3     +     1     +     2     +     3     +
C|------------------------------------------------------------------------|
G|------------------------------------------------------------------------|
D|------------------------------------------------------------------------|
A|------------------------------------------------------------------------|
E|17-17-17-17-17-17-17-17-17-17-17-17-17-17-17-17-17-17-17-17-17-17-17-17-|
B|------------------------------------------------------------------------|

  1     +     2     +     3     +     1     +     2     +     3     +
C|------------------------------------------------------------------------|
G|------------------------------------------------------------------------|
D|------------------------------------------------------------------------|
A|------------------------------------------------------------------------|
E|15-15-15-15-15-15-15-15-15-15-15-15-15-15-15-15-15-15-15-15-15-14-14-14-|
B|------------------------------------------------------------------------|

7:44
  1     +     2     +     3     +     1     +     2     +     3     +
C|------------------------------------------------------------------------|
G|------------------------------------------------------------------------|
D|------------------------------------------------------------------------|
A|------------------------------------------------------------------------|
E|------------------------------------------------------------------------|
B|12-12-12-12-12-12-12-12-12-12-12-12-12-12-12-12-12-12-12-12-12-12-12-12-|

  1     +     2     +     3
C|--------------------------------------------------------------------------|
G|--------------------------------------------------------------------------|
D|--------------------------------------------------------------------------|
A|-------------------------------------16--16-------------------------------|
E|14-14-14-14-14-14-14-14-14---14--14---------------------------------------|
B|---------------------------------------------10--10--10---10--10--10--10--|

C|------------------------------------------------------------------------|
G|------------------------------------------------------------------------|
D|------------------------------------------------------------------------|
A|------------------------------------------------------------------------|
E|---------7/-12-12-12-12-------------------------------------------------|
B|5--5--5-----------------8--8--8--8--8--8--8--8--7--7--7--7--7--7--7--7--|

C|------------------------------------------------------------|
G|------------------------------------------------------------|
D|------------------------------------------------------------|
A|------------------------------------------------------------|
E|------------------------------------------------------------|
B|10-10-10-10-10-10-10-12-8--8--8--7--0--0--0--0--0--0--0--0--|

C|------------------------------------------------------------|
G|------------------------------------------------------------|
D|------------------------------------------------------------|
A|------------------------------------------------------------|
E|--------------------57h-------------------------------------|
B|7--7--7--7--7--7--7-----10-10-10-10-10-10-10-10-8--8--8--7--|

C|------------------------------------------------------------------------|
G|------------------------------------------------------------------------|
D|------------------------------------------------------------------------|
A|------------------------------------------------------------------------|
E|--------------------79h-------------------9--10-------------------14-12-|
B|0--0--0--0--0--0--0-----7--7--7--7--7--7--------10-10-10-10-10-10-------|

C|------------------------------------------------------------|
G|------------------------------------------------------------|
D|------------------------------------------------------------|
A|------------------------------------------------------------|
E|-----------------------------57h57h-------------------14-14-|
B|8--8--8--8--0--0--0--0--0--0--------7--7--7--7--7--7--------|

C|-----------------------------------------------------------------|
G|-----------------------------------------------------------------|
D|-----------------------------------------------------------------|
A|-----------------------------------------------------------------|
E|-----------------------------------------------------------------|
B|10-10-10-10-10-10-10-12-8--8-8-8-x8-8885-5--5--5555--------------|

Last couple of minutes has no bass parts.

            
            
Suggest correction
Creating personal tab
Creating personal tab
You can edit any tab online and save it as your Personal.

You can edit, replace or remove any tab part or add personal notes – all changes will be seen only by you.

Personal tabs can be accessed anytime from any device, even offline.
Learn more »
Give kudos to tab author, rate the tab!
1 2 3 4 5
comments
print report bad tab
guest
You may want to rate the tab now too:
select rating
Wanna post a correction for this tab? Suggest correction