Oops, an error
Loading. Please wait.

Simple Boy bass

version 1
version 1

Whole song

7,622 views 15 this week
no commentswrite comment
1 2 3 4 5
x 5
add to favorites
×
Save as Personal and add changes to this tab that will be seen only by you. Learn more ›
×
You can save this tab as Personal to edit and correct it or add notes. All changes will be seen only by you. Learn more »
launch autoscroll
font size
0
reset
guitar tuner
edit
Autoscroll
slow
fast
+/-
esc
set tempo
stop
Author
Difficulty
intermediate
Artist: Karnivool
Song: Simple Boy
(This tab can be transcribed to a 5-string, but if you have a 4-string you'll have to 
play in different octaves)
Tuning: Standard 
                                                              
C|---------------------------------------------------------------|-----|
G|---------------------------------------------------------------|-----|
D|---------------------------------------------------------------|-----|
A|---------------------------------------------------------------|-----|
E|7\-------------------5---7-7---7\------------------------7-5---|-5---| 
B|---0-0-0-0-3-5-0-7-0---0-----0-----0-0-0-0-0-0-0-0-0-0-0-----0-|---3-| X3

C|------------------------------------------------------------|
G|------------------------------------------------------------|
D|------------------------------------------------------------|
A|------------------------5-------------3---------------------|
E|---------------------------------------------------5-7------| 
B|5--5--3-5-5-5-5-5-5-5-5---5-5-1--1--1----1-1-1-1-1-----0-0--| 

C|------------------------------------------------------------|
G|------------------------------------------------------------|
D|------------------------------------------------------------|
A|------------------------------------------------------------|
E|7\------------------5---7-7---7\----------------------------|
B|----0-0-0-3-5-0-7-0---0-----0-----0-0-0-0-0-0-0-0-0-0-3-3---|

C|------------------------------------------------------------|
G|------------------------------------------------------------|
D|------------------------------------------------------------|
A|------------------------------------------------------------|
E|------------------------------------------------------------| 
B|5--5--3-5-5-5-5-5-5-5-5-5-5-5-1--1--1-1-1-1-1-1-1-1-1-1-1-1-|

(You’re free to go…)
C|-------------------------------------------------------------|
G|-------------------------------------------------------------|
D|-------------------------------------------------------------|
A|-------------------------------------------------------------|
E|---7---------9---------5-----------7---------9---------5-----| 
B|0----0-8-7-0---0-7-8-0---0-5-0-7-0---0-8-7-0---0-7-8-0---0-7-| 

C|----------------------------------------------------------|
G|----------------------------------------------------------|
D|----------------------------------------------------------|
A|7\-----5-7-------5-7-------------------3------2-x3---22-x3|
E|---0-0-----0-0-0-----0-0-0--------------------------------|
B|---------------------------3-3-1--1--1----1-1------1------|

C|------------------------------------------------------------|
G|------------------------------------------------------------|
D|------------------------------------------------------------|
A|------------------------------------------------------------|
E|7\------------------5---7-7---7\----------------------------| 
B|----0-0-0-3-5-0-7-0---0-----0-----0-0-0-0-0-0-0-0-0-0-0-3-3-|

C|------------------------------------------------------------|
G|------------------------------------------------------------|
D|------------------------------------------------------------|
A|--------------------------------------3-----22--------------|
E|---------------------------------------------------7--8--7\-| 
B|5--5--3-5-5-5-5-5-5-5-5-5-5-5-1--1--1---1-1----1-1----------|

C|--------------------------------------------------------|
G|--------------------------------------------------------|
D|--------------------------------------------------------|
A|--------------------------------------------------------|
E|----------------5---7-7---7\----------------------------|
B|0-0-0-3-5-0-7-0---0-----0-----0-0-0-0-0-0-0-0-0-0-3-3---|

C|---------------------------------------------------------|
G|---------------------------------------------------------|
D|---------------------------------------------------------|
A|-------------------------------------3------2-x3---22-x3-|
E|---------------------------------------------------------| 
B|5--5--3-5-5-5-5-5-5-5-5-5-5-5-1--1--1---1-1------1-------|

C|-------------------------------------------------------------|
G|-------------------------------------------------------------|
D|-------------------------------------------------------------|
A|-------------------------------------------------------------|
E|---7---------9---------5-----------7---------9---------5-----| 
B|0----0-8-7-0---0-7-8-0---0-5-0-7-0---0-8-7-0---0-7-8-0---0-7-| 

C|------------------------------------------------------------|
G|------------------------------------------------------------|
D|------------------------------------------------------------|
A|7\-----5-7-------5-7-------------------3------2-x3---22-x3-2|
E|---0-0-----0-0-0-----0-0-0----------------------------------|
B|---------------------------3-3-1--1--1----1-1------1--------|
                                           
[2:40]                                           
C|------------------------------------------------------|--------|
G|------------------------------------------------------|--------|
D|------------------------------------------------------|--------|
A|------------------------------------------------------|--------|
E|7\-------------------5-7---7\-------------------------|5-7-7-5-| X4
B|---0-0-0-3-0-0-0-0-0-----0----0-0-0-0-0-0-0-0-0-0-3-5-|--------|

(Simple boy…stay here…)
C|------------------------------------|------6-9h--------------------------|
G|------------------------------------|----------------9-13h-7-11h---------|
D|------------------------------9/11--|--------------------------------9/11|
A|------------------------------------|------------------------------------|
E|7--777777777777777777777777777-----7|777777-----77777-----------77777----|
B|------------------------------------|------------------------------------|
    
C|--|----------------------------------------------------------------------|
G|--|----------------------------------------------------------------------|
D|-9|----------------------------------------------------------------------|
A|--|----------------------------------------------------------------------|
E|--|-----------------------------------75--7------------------------------|
B|--|0--0-00--0--0-00--0--0-00--0--0--0--------0-00--0--0--0-03--5--5-35--5|

C|----------------------------------------------------------|
G|----------------------------------------------------------|
D|----------------------------------------------------7-----|
A|--------5------------------------------------9-10-x---x-7-|
E|------------7---------------------------------------------|
B|--5--5---------0-00--0--0--0-00--0--0-00--0---------------|

C|-------------------------------------------4------------------------------|
G|--------------------------------------46h7h-4\2/4--4--4-4-4-----4-4-------|
D|--------------------------------------------------------------------------|
A|7\---57-----------------3-----22-x3-------------------------2-2-----2-2-2-|
E|---00--0000000000---------------------------------------------------------|
B|-----------------1--1--1--1-1-------1-------------------------------------|

C|--------------------------------------------------------------------------|
G|--------------------------------------------------------------------------|
D|--------------------------------------------------------------------------|
A|2-2-----------------------5-7---------------------------------------------|
E|----3--3-3-0--0-0-0-0-0-0-----0-0-7----------------------------3--3-3-0-0-|
B|-------------------------------------0-0-0-0-0-0-0-0-0-0-0-0-0------------|

C|--------------------------------------------------------------------------|
G|--------------------------------------------------------------------------|
D|--------------------------------------------------------------------------|
A|----5---5-7---------------------------------------------------------------|
E|0-0---0-----0-------------------------------------------------------------|
B|--------------3-3-3-0--0--0-0-0-0-0-0-0-0-0-0-0-0-5--5-5-3-5-5-5-5-5-5-5-5|

C|------------------------------------------------------------------------|
G|------------------------------------------------------------------------|
D|------------------------------------------------------------------------|
A|------------------------------------------------------------------------|
E|-8-8-8---------------------------10-10----------------------------------|
B|-------0--0--0-0-0-0-0-0-0-0-0-0-------8--8-8-5-5-5-5-5-5-5-5-5-5-5-5-5-|

[4.44]
C|------------------------------------------------------------------------|
G|------------------------------------------------------------------------|
D|---------------------4-2----------------------9-------------------------|
A|-------------5-----------x-----------------------10--7------------------|
E|-----5-7---5---3--0--------5-----------5-7-7----------------------------|
B|0-----------------------------3-5-0---------------------x-x-3-3--5--3-0-|

C|--------------------------------------------------------------------|
G|--------------------------------------------------------------------|
D|---------------------4----------------------------------------------|
A|------------5----------2-5------------------------------------------|
E|--5-7-7---5---3--0----------5---------5-7-7-7----------------55x----|
B|------------------------------3-00-0-----------5-7--8--5--55x---3333|

[5.14]
C|----------------------------------------------------------------------2---|
G|-------------------------------------------------------------7-6p---------|
D|-----------------------------------------------------------------7h2------|
A|--------------------------------------------------------------------------|
E|------------------------------7-------------------------7----------0------|
B|0--------8\------xx3--5-0-----------8--5----5xx3--0-----------------------|

C|---2---------------------------------------|
G|-------------------------------------------|
D|--------------------9----------------------|
A|xxx----------------------------------------|
E|---------------7----------------55---------|
B|------3-0---------------8--5--xx----3------|


************************************

| \  Slide down
| x  Dead note
| h  Hammer-on
| /  Slide up
| p  Pull-off

************************************
Suggest correction
Creating personal tab
Creating personal tab
You can edit any tab online and save it as your Personal.

You can edit, replace or remove any tab part or add personal notes – all changes will be seen only by you.

Personal tabs can be accessed anytime from any device, even offline.
Learn more »
comments
print report bad tab
guest
You may want to rate the tab now too:
select rating
Wanna post a correction for this tab? Suggest correction