Oops, an error
Loading. Please wait.

Acid Turkish Bath Shelter From The Storm Tab

version 2
version 2

Whole song

Interactive

7 views 1 this week
no commentswrite comment
1 2 3 4 5
2 more votes to show rating
add to favorites
launch autoscroll
font size
0
reset
how to read this tab
guitar tuner
Autoscroll
slow
fast
+/-
esc
set tempo
stop
Help us to improve Ultimate-Guitar.com Take our survey!
×
Author
Difficulty
Tuning
novice
C G C F A D
Kasabian - Acid Turkish Bath (Shelter from the storm)

This transcription comes from my guitarpro file (you can find it on UG).
Drop C Tuning
A sitar is used on the intro.
The tempo of the intro is 72 but when the song really begins the tempo is 144 (the double)

[Intro 1]
Tempo = 72

D|------------------------|------------------------|
A|--3----3---3-3----3---3-|--3----3---3-3----3---3-|
F|--2----2---2-2----2---2-|--2----2---2-2----2---2-|
C|--0----0---0-0----0---0-|--0----0---0-0----0---0-|
G|--0----0---0-0----0---0-|--0----0---0-0----0---0-|
C|------------------------|------------------------|


D|------------------------|------------------------|
A|--3----3---3-3----3---3-|--3----3---3-3----3---3-|
F|--2----2---2-2----2---2-|--2----2---2-2----2---2-|
C|--0----0---0-0----0---0-|--0----0---0-0----0---0-|
G|--0----0---0-0----0---0-|--0----0---0-0----0---0-|
C|------------------------|------------------------|
 |
D|------------------------------------|------------------------------------|
A|--8-10-10--10----8-10--10--10-11----|--8-10-10--10----8-10--10--10-11----|
F|------------------------------------|------------------------------------|
C|--5--7--7---7----5--7---7---7--8----|--5--7--7---7----5--7---7---7--8----|
G|------------------------------------|------------------------------------|
C|------------------------------------|------------------------------------|

D|------------------------|------------------------|
A|--3----3---3-3----3---3-|--3----3---3-3----3---3-|
F|--2----2---2-2----2---2-|--2----2---2-2----2---2-|
C|--0----0---0-0----0---0-|--0----0---0-0----0---0-|
G|--0----0---0-0----0---0-|--0----0---0-0----0---0-|
C|------------------------|------------------------|
 |
D|------------------------------------|-------------------------------|
A|--8-10-10--10----8-10--10--10-11----|--8-10-10--10----8-10----------|
F|------------------------------------|-------------------------------|
C|--5--7--7---7----5--7---7---7--8----|--5--7--7---7----5--7----------|
G|------------------------------------|-------------------------------|
C|------------------------------------|-------------------------------|


D|------------------------|------------------------|
A|--3----3---3-3----3---3-|--3----3---3-3----3---3-|
F|--2----2---2-2----2---2-|--2----2---2-2----2---2-|
C|--0----0---0-0----0---0-|--0----0---0-0----0---0-|
G|--0----0---0-0----0---0-|--0----0---0-0----0---0-|
C|------------------------|------------------------|
 |
D|------------------------------------|-------------------------------|
A|--8-10-10--10----8-10--10--10-11----|--8-10-10--10----8-10----------|
F|------------------------------------|-------------------------------|
C|--5--7--7---7----5--7---7---7--8----|--5--7--7---7----5--7----------|
G|------------------------------------|-------------------------------|
C|------------------------------------|-------------------------------|
 |
D|--10---------------8/--|--11---------------8--|
A|-----------------------|----------------------|
F|---7---------------5/--|---8---------------5--|
C|-----------------------|----------------------|
G|-----------------------|----------------------|
C|-----------------------|----------------------|


D|------------------------|------------------------|
A|--3----3---3-3----3---3-|--3----3---3-3----3---3-|
F|--2----2---2-2----2---2-|--2----2---2-2----2---2-|
C|--0----0---0-0----0---0-|--0----0---0-0----0---0-|
G|--0----0---0-0----0---0-|--0----0---0-0----0---0-|
C|------------------------|------------------------|
 |
D|------------------------------------|-------------------------------|
A|--8-10-10--10----8-10--10--10-11----|--8-10-10--10----8-10----------|
F|------------------------------------|-------------------------------|
C|--5--7--7---7----5--7---7---7--8----|--5--7--7---7----5--7----------|
G|------------------------------------|-------------------------------|
C|------------------------------------|-------------------------------|
 |
D|--8/--10---------------|-------------------|
A|-----------------------|-------------------|
F|--5/---7---------------|-------------------|
C|-----------------------|-------------------|
G|-----------------------|-------------------|
C|-----------------------|-------------------|

[Intro 2]
Tempo = 144

D|------------------------|-----------------------|
A|------------------------|-----------------------|
F|------------------------|-----------------------|    (x2)
C|------------------------|-----------------------|
G|-------5--------5-------|-----5-------5---------|
C|--0-------0--0-------0--|----------0-------0----|


[Preverse 1]

D|------------------------|-----------------------|
A|------------------------|-----------------------|
F|------------------------|-----------------------|    (x8)
C|------------------------|-----------------------|
G|-------5--------5-------|-----5-------5---------|
C|--0-------0--0-------0--|----------0-------0----|


[Verse 1]

D||--1--1--1----1--1--1--1--|--1--1----1--1--1--1--1--||
A||--3--3--3----3--3--3--3--|--3--3----3--3--3--3--3--||
F||--2--2--2----2--2--2--2--|--2--2----2--2--2--2--2--|| (x3)
C||--0--0--0----0--0--0--0--|--0--0----0--0--0--0--0--||
G||-------------------------|-------------------------||
C||-------------------------|-------------------------||

D|--0----0----0--0--0--3--|--3--3----3--3--3--3--3--|
A|--1----1----1--1--1--3--|--3--3----3--3--3--3--3--|
F|--0----0----0--0--0--0--|--0--0----0--0--0--0--0--|
C|--2----2----2--2--2--0--|--0--0----0--0--0--0--0--|
G|--3----3----3--3--3--2--|--2--2----2--2--2--2--2--|
C|------------------------|-------------------------|


D||--1--1--1----1--1--1--1--|--1--1----1--1--1--1--1--||
A||--3--3--3----3--3--3--3--|--3--3----3--3--3--3--3--||
F||--2--2--2----2--2--2--2--|--2--2----2--2--2--2--2--|| (x3)
C||--0--0--0----0--0--0--0--|--0--0----0--0--0--0--0--||
G||-------------------------|-------------------------||
C||-------------------------|-------------------------||

D|--0----0----0--0--0--3--|--3--3----3--3--3--3--3--|
A|--1----1----1--1--1--3--|--3--3----3--3--3--3--3--|
F|--0----0----0--0--0--0--|--0--0----0--0--0--0--0--|
C|--2----2----2--2--2--0--|--0--0----0--0--0--0--0--|
G|--3----3----3--3--3--2--|--2--2----2--2--2--2--2--|
C|------------------------|-------------------------|


[Chorus 1]

D||--1----1--1--1--1--1--1--|--1--1--1--1--1--1--1--1--|
A||--3----3--3--3--3--3--3--|--3--3--3--3--3--3--3--3--|
F||--2----2--2--2--2--2--2--|--2--2--2--2--2--2--2--2--|
C||--0----0--0--0--0--0--0--|--0--0--0--0--0--0--0--0--|
G||-------------------------|--------------------------|
C||-------------------------|--------------------------|
 |
D||------------------------|----------------------------|
A||------------------------|----------------------------|
F||------------------------|----------------------------|
C||------------------------|----------------------------|
G||-------5--------5-------|--7/--8\--7--5--------5-----|
C||--0-------0--0-------0--|-------------------0-----0--|


D|--0----0--0--0--0--0--0--|--0----0--0--0--0--0--0--||
A|--1----1--1--1--1--1--1--|--1----1--1--1--1--1--1--||
F|--0----0--0--0--0--0--0--|--0----0--0--0--0--0--0--||
C|--2----2--2--2--2--2--2--|--2----2--2--2--2--2--2--||
G|--3----3--3--3--3--3--3--|--3----3--3--3--3--3--3--||
C|-------------------------|-------------------------||
 |
D|------------------------|---------------------------||
A|------------------------|---------------------------||
F|------------------------|---------------------------||
C|------------------------|---------------------------||
G|--3----3--------3-------|--8g10-------8--------7----||  (x4)
C|----------0--7-------0--|----------0--------0-------||


[Break 1]

D||-----------------------------|---------------------------||
A||-----------------------------|---------------------------||
F||-----------------------------|---------------------------||
C||--10--12--12----12-------10--|--12----12----12--13-------||
G||--10--12--12----12-------10--|--12----12----12--13-------||
C||--10--12--12----12-------10--|--12----12----12--13-------||
 |
D||---------------------------|---------------------------||
A||--8--10--10----10-------8--|--10----10----10--11-------||
F||---------------------------|---------------------------||
C||--5---7---7-----7-------5--|---7-----7-----7---8-------||
G||---------------------------|---------------------------||  (x3)
C||---------------------------|---------------------------||


D|-----------------------------|----------------------|
A|-----------------------------|----------------------|
F|-----------------------------|----------------------|
C|--10--12--12----12-------10--|--12------------------|
G|--10--12--12----12-------10--|--12------------------|
C|--10--12--12----12-------10--|--12------------------|
 |
D|---------------------------|----------------------|
A|--8--10--10----10-------8--|--10------------------|
F|---------------------------|----------------------|
C|--5---7---7-----7-------5--|---7------------------|
G|---------------------------|----------------------|
C|---------------------------|----------------------|


D|--------------------|--------------------|------------------------|------------------------|
A|--------------------|--------------------|------------------------|------------------------|
F|--------------------|--------------------|------------------------|------------------------|
C|--------------------|--------------------|------------------------|------------------------|  (x2)
G|--5--5--5--5--3--3--|--6--6--6--6--3--3--|------------------------|------------------------|
C|--------------------|--------------------|--0----3--3--0----3--3--|--0----3--3--0----3--3--|


D|------------------------|-----------------------|
A|------------------------|-----------------------|
F|------------------------|-----------------------|    (x2)
C|------------------------|-----------------------|
G|-------5--------5-------|-----5-------5---------|
C|--0-------0--0-------0--|----------0-------0----|


[Preverse 2]

D|------------------------|-----------------------|
A|------------------------|-----------------------|
F|------------------------|-----------------------|    (x8)
C|------------------------|-----------------------|
G|-------5--------5-------|-----5-------5---------|
C|--0-------0--0-------0--|----------0-------0----|


[Verse 2]

D||--1--1--1----1--1--1--1--|--1--1----1--1--1--1--1--||
A||--3--3--3----3--3--3--3--|--3--3----3--3--3--3--3--||
F||--2--2--2----2--2--2--2--|--2--2----2--2--2--2--2--|| (x3)
C||--0--0--0----0--0--0--0--|--0--0----0--0--0--0--0--||
G||-------------------------|-------------------------||
C||-------------------------|-------------------------||

D|--0----0----0--0--0--3--|--3--3----3--3--3--3--3--|
A|--1----1----1--1--1--3--|--3--3----3--3--3--3--3--|
F|--0----0----0--0--0--0--|--0--0----0--0--0--0--0--|
C|--2----2----2--2--2--0--|--0--0----0--0--0--0--0--|
G|--3----3----3--3--3--2--|--2--2----2--2--2--2--2--|
C|------------------------|-------------------------|


D||--1--1--1----1--1--1--1--|--1--1----1--1--1--1--1--||
A||--3--3--3----3--3--3--3--|--3--3----3--3--3--3--3--||
F||--2--2--2----2--2--2--2--|--2--2----2--2--2--2--2--|| (x3)
C||--0--0--0----0--0--0--0--|--0--0----0--0--0--0--0--||
G||-------------------------|-------------------------||
C||-------------------------|-------------------------||

D|--0----0----0--0--0--3--|--3--3----3--3--3--3--3--|
A|--1----1----1--1--1--3--|--3--3----3--3--3--3--3--|
F|--0----0----0--0--0--0--|--0--0----0--0--0--0--0--|
C|--2----2----2--2--2--0--|--0--0----0--0--0--0--0--|
G|--3----3----3--3--3--2--|--2--2----2--2--2--2--2--|
C|------------------------|-------------------------|


[Chorus 2]

D||--1----1--1--1--1--1--1--|--1--1--1--1--1--1--1--1--|
A||--3----3--3--3--3--3--3--|--3--3--3--3--3--3--3--3--|
F||--2----2--2--2--2--2--2--|--2--2--2--2--2--2--2--2--|
C||--0----0--0--0--0--0--0--|--0--0--0--0--0--0--0--0--|
G||-------------------------|--------------------------|
C||-------------------------|--------------------------|
 |
D||------------------------|----------------------------|
A||------------------------|----------------------------|
F||------------------------|----------------------------|
C||------------------------|----------------------------|
G||-------5--------5-------|--7/--8\--7--5--------5-----|
C||--0-------0--0-------0--|-------------------0-----0--|


D|--0----0--0--0--0--0--0--|--0----0--0--0--0--0--0--||
A|--1----1--1--1--1--1--1--|--1----1--1--1--1--1--1--||
F|--0----0--0--0--0--0--0--|--0----0--0--0--0--0--0--||
C|--2----2--2--2--2--2--2--|--2----2--2--2--2--2--2--||
G|--3----3--3--3--3--3--3--|--3----3--3--3--3--3--3--||
C|-------------------------|-------------------------||
 |
D|------------------------|---------------------------||
A|------------------------|---------------------------||
F|------------------------|---------------------------||
C|------------------------|---------------------------||
G|--3----3--------3-------|--8g10-------8--------7----||  (x4)
C|----------0--7-------0--|----------0--------0-------||


[Break 2]

D||-----------------------------|---------------------------||
A||-----------------------------|---------------------------||
F||-----------------------------|---------------------------||
C||--10--12--12----12-------10--|--12----12----12--13-------||
G||--10--12--12----12-------10--|--12----12----12--13-------||
C||--10--12--12----12-------10--|--12----12----12--13-------||
 |
D||---------------------------|---------------------------||
A||--8--10--10----10-------8--|--10----10----10--11-------||
F||---------------------------|---------------------------||
C||--5---7---7-----7-------5--|---7-----7-----7---8-------||
G||---------------------------|---------------------------||  (x3)
C||---------------------------|---------------------------||


D|-----------------------------|----------------------|
A|-----------------------------|----------------------|
F|-----------------------------|----------------------|
C|--10--12--12----12-------10--|--12------------------|
G|--10--12--12----12-------10--|--12------------------|
C|--10--12--12----12-------10--|--12------------------|
 |
D|---------------------------|----------------------|
A|--8--10--10----10-------8--|--10------------------|
F|---------------------------|----------------------|
C|--5---7---7-----7-------5--|---7------------------|
G|---------------------------|----------------------|
C|---------------------------|----------------------|


D||-----------------------------|---------------------------||
A||-----------------------------|---------------------------||
F||-----------------------------|---------------------------||
C||--10--12--12----12-------10--|--12----12----12--13-------||
G||--10--12--12----12-------10--|--12----12----12--13-------||
C||--10--12--12----12-------10--|--12----12----12--13-------||
 |
D||---------------------------|---------------------------||
A||--8--10--10----10-------8--|--10----10----10--11-------||
F||---------------------------|---------------------------||
C||--5---7---7-----7-------5--|---7-----7-----7---8-------||
G||---------------------------|---------------------------||  (x3)
C||---------------------------|---------------------------||


D|-----------------------------|----------------------|
A|-----------------------------|----------------------|
F|-----------------------------|----------------------|
C|--10--12--12----12-------10--|--12------------------|
G|--10--12--12----12-------10--|--12------------------|
C|--10--12--12----12-------10--|--12------------------|
 |
D|---------------------------|----------------------|
A|--8--10--10----10-------8--|--10------------------|
F|---------------------------|----------------------|
C|--5---7---7-----7-------5--|---7------------------|
G|---------------------------|----------------------|
C|---------------------------|----------------------|


[Bridge]

D||--1--1--1--1--1--1--1--1--|--1--1--1--1--1--1--1--1--|
A||--3--3--3--3--3--3--3--3--|--3--3--3--3--3--3--3--3--|
F||--2--2--2--2--2--2--2--2--|--2--2--2--2--2--2--2--2--|
C||--0--0--0--0--0--0--0--0--|--0--0--0--0--0--0--0--0--|
G||--------------------------|--------------------------|
C||--------------------------|--------------------------|


D|--0--0--0--0--0--0--0--0--|--3----3--3--3--3--3--3--||
A|--1--1--1--1--1--1--1--1--|--3----3--3--3--3--3--3--||
F|--0--0--0--0--0--0--0--0--|--0----0--0--0--0--0--0--||
C|--2--2--2--2--2--2--2--2--|--0----0--0--0--0--0--0--||  (x4)
G|--3--3--3--3--3--3--3--3--|--2----2--2--2--2--2--2--||
C|--------------------------|-------------------------||


[Chorus 3]

D||--1----1--1--1--1--1--1--|--1--1--1--1--1--1--1--1--|
A||--3----3--3--3--3--3--3--|--3--3--3--3--3--3--3--3--|
F||--2----2--2--2--2--2--2--|--2--2--2--2--2--2--2--2--|
C||--0----0--0--0--0--0--0--|--0--0--0--0--0--0--0--0--|
G||-------------------------|--------------------------|
C||-------------------------|--------------------------|
 |
D||------------------------|----------------------------|
A||------------------------|----------------------------|
F||------------------------|----------------------------|
C||------------------------|----------------------------|
G||-------5--------5-------|--7/--8\--7--5--------5-----|
C||--0-------0--0-------0--|-------------------0-----0--|


D|--0----0--0--0--0--0--0--|--0----0--0--0--0--0--0--||
A|--1----1--1--1--1--1--1--|--1----1--1--1--1--1--1--||
F|--0----0--0--0--0--0--0--|--0----0--0--0--0--0--0--||
C|--2----2--2--2--2--2--2--|--2----2--2--2--2--2--2--||
G|--3----3--3--3--3--3--3--|--3----3--3--3--3--3--3--||
C|-------------------------|-------------------------||
 |
D|------------------------|---------------------------||
A|------------------------|---------------------------||
F|------------------------|---------------------------||
C|------------------------|---------------------------||
G|--3----3--------3-------|--8g10-------8--------7----||  (x4)
C|----------0--7-------0--|----------0--------0-------||


[Break 3]

D|--------------------------|--------------------------|-----------------------|-----------------------|
A|--------------------------|--------------------------|-----------------------|-----------------------|
F|--------------------------|--------------------------|-----------------------|-----------------------|
C|--12--12--12--12--10--10--|--13--13--13--13--10--10--|-----------------------|-----------------------|
G|--12--12--12--12--10--10--|--13--13--13--13--10--10--|-----------------------|-----------------------|
C|--12--12--12--12--10--10--|--13--13--13--13--10--10--|--0----3--3--0---3--3--|--0----3--3--0---3--3--| (x2)


[Outro]

D||--------1--------1--------|--3--------1--------1-----|
A||-----3--------3--------3--|--------3--------3--------|
F||--2--------2--------2-----|-----2--------2--------2--|
C||--------------------------|--------------------------|
G||--------------------------|--------------------------|
C||--------------------------|--------------------------|

  
D|--------0--------0--------|--1--------0--------0-----|
A|-----1--------1--------1--|--------1--------1--------|
F|--0--------0--------0-----|-----0--------0--------0--|
C|--------------------------|--------------------------|
G|--------------------------|--------------------------|
C|--------------------------|--------------------------|

  
D|--------1--------1--------|--3--------1--------1-----|
A|-----3--------3--------3--|--------3--------3--------|
F|--2--------2--------2-----|-----2--------2--------2--|
C|--------------------------|--------------------------|
G|--------------------------|--------------------------|
C|--------------------------|--------------------------|


D|--------0--------0--------|--0--------1--------3-----||
A|-----1--------1--------1--|--------1--------1--------||
F|--0--------0--------0-----|-----0--------0-----------||
C|--------------------------|--------------------------||
G|--------------------------|--------------------------|| (X2)
C|--------------------------|--------------------------||



| /   Slide up
| \   Slide down
| g   Appogiature
Suggest correction
Give kudos to tab author, rate the tab!
1 2 3 4 5
comments
print report bad tab
guest
You may want to rate the tab now too:
select rating
Wanna post a correction for this tab? Suggest correction