Oops, an error
Loading. Please wait.

Bow Tab

3,049 views 7 this week
no commentswrite comment
1 2 3 4 5
please rate
add to favorites
launch autoscroll
font size
0
reset
how to read this tab
guitar tuner
Tab Pro tools
  • play this tab
  • loop segment
  • change instrument
  • show fretboard
  • metronome
×
Best way to learn
"Bow"
Autoscroll
slow
fast
+/-
esc
set tempo
stop
Contributor
-------------------------------------------------------------------------------
                             BOW - Kasabian
-------------------------------------------------------------------------------
Tabbed by: Howard Moon
E-mail: stupidbobbybob@gmail.com

Tuning: Standard

Verse:
e|---------------------------------------------------------------------------|
B|---------------------------------------------------------------------------|
G|---------------------------------------------------------------------------|
D|-7-7-7-7-7-7-7-7-7-7-7-5-5-5-3-3-3-3-3-3-3-3-3-3-3-3-2-2-2-----------------|
A|-5-5-5-5-5-5-5-5-5-5-5-3-3-3-1-1-1-1-1-1-1-1-1-1-1-1-0-0-0-5-5-5-5-5-5-5-5-|
E|-----------------------------------------------------------3-3-3-3-3-3-3-3-|

e|---------------------------------------------------------------------------|
B|---------------------------------------------------------------------------|
G|---------------------------------------------------------------------------|
D|---------------------------------------------------------------------------|
A|-5-5-5-7-7-7-7-8-8-8-8-8-8-8-8-10-10-10-10-10-10-10-10---------------------|
E|-3-3-3-5-5-5-5-6-6-6-6-6-6-6-6-8--8--8--8--8--8--8--8----------------------|

Chorus(strumming is not shown):
e|---------------------------------------------------------------------------|
B|---------------------------------------------------------------------------|
G|-7----5--3----2------------------------------------------------------------|
D|-7----5--3----2--5----7--8--10---------------------------------------------|
A|-5----3--1----0--5----7--8--10---------------------------------------------|
E|-----------------3----5--6--8----------------------------------------------|

Pre-verse:
e|---------------------------------------------------------------------------|
B|-----6---------6-----------------------------------------------------------|
G|---------7-------7---------------------------------------------------------|
D|---7-------7-------7-------------------------------------------------------|
A|-5-----5-----5-------------------------------------------------------------|
E|---------------------------------------------------------------------------|

Chorus: x1

Bridge:
e|---------------------------------------------------------------------------|
B|-10-8-6h8--------10-8-6h8------------------5-5--5-6-6--8-8-8--10-10--------|
G|----------7-7--7----------7-7--7--5-7-7--7---------------------------------|
D|---------------------------------------------------------------------------|
A|---------------------------------------------------------------------------|
E|---------------------------------------------------------------------------|
************************************

| /   slide up
| \   slide down
| h   hammer-on
| p   pull-off
| ~   vibrato
| +   harmonic
| x   Mute note
| b   Bend
| pb  Pre-bend
| br  Bend release
| pbr Pre-bend release
| brb Bend release bend

************************************
comments
We did not receive enough feedback on this tab! Please rate:
print report bad tab
1 2 3 4 5
I want to post or [tab]
guest
You may want to rate the tab now too:
select rating
Please do not post tabs as comments. Select "correction" instead!